  0
SECTION
  2
HEADER
  9
$ACADVER
  1
AC1015
  9
$ACADMAINTVER
 70
     6
  9
$DWGCODEPAGE
  3
ANSI_1254
  9
$INSBASE
 10
0.0
 20
0.0
 30
0.0
  9
$EXTMIN
 10
0.0
 20
0.0
 30
0.0
  9
$EXTMAX
 10
279.4
 20
215.9
 30
0.0
  9
$LIMMIN
 10
0.0
 20
0.0
  9
$LIMMAX
 10
279.4
 20
215.9
  9
$ORTHOMODE
 70
     0
  9
$REGENMODE
 70
     1
  9
$FILLMODE
 70
     1
  9
$QTEXTMODE
 70
     0
  9
$MIRRTEXT
 70
     1
  9
$LTSCALE
 40
1.0
  9
$ATTMODE
 70
     1
  9
$TEXTSIZE
 40
3.5
  9
$TRACEWID
 40
1.0
  9
$TEXTSTYLE
  7
Standard
  9
$CLAYER
  8
0
  9
$CELTYPE
  6
ByLayer
  9
$CECOLOR
 62
   256
  9
$CELTSCALE
 40
1.0
  9
$DISPSILH
 70
     0
  9
$DIMSCALE
 40
1.0
  9
$DIMASZ
 40
3.5
  9
$DIMEXO
 40
1.0
  9
$DIMDLI
 40
3.75
  9
$DIMRND
 40
0.0
  9
$DIMDLE
 40
0.0
  9
$DIMEXE
 40
1.0
  9
$DIMTP
 40
0.0
  9
$DIMTM
 40
0.0
  9
$DIMTXT
 40
3.5
  9
$DIMCEN
 40
2.5
  9
$DIMTSZ
 40
0.0
  9
$DIMTOL
 70
     0
  9
$DIMLIM
 70
     0
  9
$DIMTIH
 70
     1
  9
$DIMTOH
 70
     1
  9
$DIMSE1
 70
     0
  9
$DIMSE2
 70
     0
  9
$DIMTAD
 70
     1
  9
$DIMZIN
 70
     0
  9
$DIMBLK
  1

  9
$DIMASO
 70
     1
  9
$DIMSHO
 70
     1
  9
$DIMPOST
  1

  9
$DIMAPOST
  1

  9
$DIMALT
 70
     0
  9
$DIMALTD
 70
     3
  9
$DIMALTF
 40
0.0393700787
  9
$DIMLFAC
 40
1.0
  9
$DIMTOFL
 70
     1
  9
$DIMTVP
 40
0.0
  9
$DIMTIX
 70
     0
  9
$DIMSOXD
 70
     0
  9
$DIMSAH
 70
     0
  9
$DIMBLK1
  1

  9
$DIMBLK2
  1

  9
$DIMSTYLE
  2
ISO-25
  9
$DIMCLRD
 70
     0
  9
$DIMCLRE
 70
     0
  9
$DIMCLRT
 70
     0
  9
$DIMTFAC
 40
1.0
  9
$DIMGAP
 40
1.524
  9
$DIMJUST
 70
     0
  9
$DIMSD1
 70
     0
  9
$DIMSD2
 70
     0
  9
$DIMTOLJ
 70
     0
  9
$DIMTZIN
 70
     0
  9
$DIMALTZ
 70
     0
  9
$DIMALTTZ
 70
     0
  9
$DIMUPT
 70
     0
  9
$DIMDEC
 70
     2
  9
$DIMTDEC
 70
     2
  9
$DIMALTU
 70
     2
  9
$DIMALTTD
 70
     3
  9
$DIMTXSTY
  7
Standard
  9
$DIMAUNIT
 70
     0
  9
$DIMADEC
 70
     2
  9
$DIMALTRND
 40
0.0
  9
$DIMAZIN
 70
     0
  9
$DIMDSEP
 70
    44
  9
$DIMATFIT
 70
     3
  9
$DIMFRAC
 70
     0
  9
$DIMLDRBLK
  1

  9
$DIMLUNIT
 70
     2
  9
$DIMLWD
 70
    -2
  9
$DIMLWE
 70
    -2
  9
$DIMTMOVE
 70
     0
  9
$LUNITS
 70
     2
  9
$LUPREC
 70
     2
  9
$SKETCHINC
 40
1.0
  9
$FILLETRAD
 40
10.0
  9
$AUNITS
 70
     0
  9
$AUPREC
 70
     2
  9
$MENU
  1
.
  9
$ELEVATION
 40
0.0
  9
$PELEVATION
 40
0.0
  9
$THICKNESS
 40
0.0
  9
$LIMCHECK
 70
     0
  9
$CHAMFERA
 40
0.0
  9
$CHAMFERB
 40
0.0
  9
$CHAMFERC
 40
0.0
  9
$CHAMFERD
 40
0.0
  9
$SKPOLY
 70
     0
  9
$TDCREATE
 40
2458985.721492894
  9
$TDUCREATE
 40
2458985.596492894
  9
$TDUPDATE
 40
2458985.721493183
  9
$TDUUPDATE
 40
2458985.596493183
  9
$TDINDWG
 40
0.0000000116
  9
$TDUSRTIMER
 40
0.0000000116
  9
$USRTIMER
 70
     1
  9
$ANGBASE
 50
0.0
  9
$ANGDIR
 70
     0
  9
$PDMODE
 70
     0
  9
$PDSIZE
 40
-1.0
  9
$PLINEWID
 40
0.0
  9
$SPLFRAME
 70
     0
  9
$SPLINETYPE
 70
     6
  9
$SPLINESEGS
 70
     8
  9
$HANDSEED
  5
E1
  9
$SURFTAB1
 70
     6
  9
$SURFTAB2
 70
     6
  9
$SURFTYPE
 70
     6
  9
$SURFU
 70
     6
  9
$SURFV
 70
     6
  9
$UCSBASE
  2

  9
$UCSNAME
  2

  9
$UCSORG
 10
0.0
 20
0.0
 30
0.0
  9
$UCSXDIR
 10
1.0
 20
0.0
 30
0.0
  9
$UCSYDIR
 10
0.0
 20
1.0
 30
0.0
  9
$UCSORTHOREF
  2

  9
$UCSORTHOVIEW
 70
     0
  9
$UCSORGTOP
 10
0.0
 20
0.0
 30
0.0
  9
$UCSORGBOTTOM
 10
0.0
 20
0.0
 30
0.0
  9
$UCSORGLEFT
 10
0.0
 20
0.0
 30
0.0
  9
$UCSORGRIGHT
 10
0.0
 20
0.0
 30
0.0
  9
$UCSORGFRONT
 10
0.0
 20
0.0
 30
0.0
  9
$UCSORGBACK
 10
0.0
 20
0.0
 30
0.0
  9
$PUCSBASE
  2

  9
$PUCSNAME
  2

  9
$PUCSORG
 10
0.0
 20
0.0
 30
0.0
  9
$PUCSXDIR
 10
1.0
 20
0.0
 30
0.0
  9
$PUCSYDIR
 10
0.0
 20
1.0
 30
0.0
  9
$PUCSORTHOREF
  2

  9
$PUCSORTHOVIEW
 70
     0
  9
$PUCSORGTOP
 10
0.0
 20
0.0
 30
0.0
  9
$PUCSORGBOTTOM
 10
0.0
 20
0.0
 30
0.0
  9
$PUCSORGLEFT
 10
0.0
 20
0.0
 30
0.0
  9
$PUCSORGRIGHT
 10
0.0
 20
0.0
 30
0.0
  9
$PUCSORGFRONT
 10
0.0
 20
0.0
 30
0.0
  9
$PUCSORGBACK
 10
0.0
 20
0.0
 30
0.0
  9
$USERI1
 70
     0
  9
$USERI2
 70
     0
  9
$USERI3
 70
     0
  9
$USERI4
 70
     0
  9
$USERI5
 70
     0
  9
$USERR1
 40
0.0
  9
$USERR2
 40
0.0
  9
$USERR3
 40
0.0
  9
$USERR4
 40
0.0
  9
$USERR5
 40
0.0
  9
$WORLDVIEW
 70
     1
  9
$SHADEDGE
 70
     3
  9
$SHADEDIF
 70
    70
  9
$TILEMODE
 70
     1
  9
$MAXACTVP
 70
    64
  9
$PINSBASE
 10
0.0
 20
0.0
 30
0.0
  9
$PLIMCHECK
 70
     0
  9
$PEXTMIN
 10
1.0000000000E+20
 20
1.0000000000E+20
 30
1.0000000000E+20
  9
$PEXTMAX
 10
-1.0000000000E+20
 20
-1.0000000000E+20
 30
-1.0000000000E+20
  9
$PLIMMIN
 10
0.0
 20
0.0
  9
$PLIMMAX
 10
420.0
 20
297.0
  9
$UNITMODE
 70
     0
  9
$VISRETAIN
 70
     1
  9
$PLINEGEN
 70
     0
  9
$PSLTSCALE
 70
     1
  9
$TREEDEPTH
 70
  3020
  9
$CMLSTYLE
  2
Standard
  9
$CMLJUST
 70
     0
  9
$CMLSCALE
 40
20.0
  9
$PROXYGRAPHICS
 70
     1
  9
$MEASUREMENT
 70
     1
  9
$CELWEIGHT
370
    -1
  9
$ENDCAPS
280
     0
  9
$JOINSTYLE
280
     0
  9
$LWDISPLAY
290
     1
  9
$INSUNITS
 70
     4
  9
$HYPERLINKBASE
  1

  9
$STYLESHEET
  1

  9
$XEDIT
290
     1
  9
$CEPSNTYPE
380
     0
  9
$PSTYLEMODE
290
     1
  9
$FINGERPRINTGUID
  2
{69865ce0-9f08-4a3c-af51-f0014090c513}
  9
$VERSIONGUID
  2
{FAEB1C32-E019-11D5-929B-00C0DF256EC4}
  9
$EXTNAMES
290
     1
  9
$PSVPSCALE
 40
0.0
  9
$OLESTARTUP
290
     0
  0
ENDSEC
  0
SECTION
  2
CLASSES
  0
CLASS
  1
ACDBDICTIONARYWDFLT
  2
AcDbDictionaryWithDefault
  3
ObjectDBX Classes
 90
        0
280
     0
281
     0
  0
CLASS
  1
VISUALSTYLE
  2
AcDbVisualStyle
  3
ObjectDBX Classes
 90
     4095
280
     0
281
     0
  0
CLASS
  1
MATERIAL
  2
AcDbMaterial
  3
ObjectDBX Classes
 90
     1153
280
     0
281
     0
  0
CLASS
  1
SCALE
  2
AcDbScale
  3
ObjectDBX Classes
 90
     1153
280
     0
281
     0
  0
CLASS
  1
TABLESTYLE
  2
AcDbTableStyle
  3
ObjectDBX Classes
 90
     4095
280
     0
281
     0
  0
CLASS
  1
MLEADERSTYLE
  2
AcDbMLeaderStyle
  3
ACDB_MLEADERSTYLE_CLASS
 90
     4095
280
     0
281
     0
  0
CLASS
  1
SUN
  2
AcDbSun
  3
SCENEOE
 90
     1153
280
     0
281
     0
  0
CLASS
  1
ACDBPLACEHOLDER
  2
AcDbPlaceHolder
  3
ObjectDBX Classes
 90
        0
280
     0
281
     0
  0
CLASS
  1
LAYOUT
  2
AcDbLayout
  3
ObjectDBX Classes
 90
        0
280
     0
281
     0
  0
ENDSEC
  0
SECTION
  2
TABLES
  0
TABLE
  2
VPORT
  5
8
330
0
100
AcDbSymbolTable
 70
     1
  0
VPORT
  5
29
330
8
100
AcDbSymbolTableRecord
100
AcDbViewportTableRecord
  2
*Active
 70
     0
 10
0.0
 20
0.0
 11
1.0
 21
1.0
 12
139.7
 22
107.95
 13
0.0
 23
0.0
 14
10.0
 24
10.0
 15
10.0
 25
10.0
 16
0.0
 26
0.0
 36
1.0
 17
0.0
 27
0.0
 37
0.0
 40
215.9
 41
1.2941176471
 42
50.0
 43
0.0
 44
0.0
 50
0.0
 51
0.0
 71
     0
 72
  2000
 73
     1
 74
     3
 75
     0
 76
     0
 77
     0
 78
     0
281
     0
 65
     1
110
0.0
120
0.0
130
0.0
111
1.0
121
0.0
131
0.0
112
0.0
122
1.0
132
0.0
 79
     0
146
0.0
  0
ENDTAB
  0
TABLE
  2
LTYPE
  5
5
330
0
100
AcDbSymbolTable
 70
     6
  0
LTYPE
  5
14
330
5
100
AcDbSymbolTableRecord
100
AcDbLinetypeTableRecord
  2
ByBlock
 70
     0
  3

 72
    65
 73
     0
 40
0.0
  0
LTYPE
  5
15
330
5
100
AcDbSymbolTableRecord
100
AcDbLinetypeTableRecord
  2
ByLayer
 70
     0
  3

 72
    65
 73
     0
 40
0.0
  0
LTYPE
  5
16
330
5
100
AcDbSymbolTableRecord
100
AcDbLinetypeTableRecord
  2
Continuous
 70
     0
  3
Solid line
 72
    65
 73
     0
 40
0.0
  0
LTYPE
  5
6E
330
5
100
AcDbSymbolTableRecord
100
AcDbLinetypeTableRecord
  2
HIDDEN
 70
     0
  3
Hidden __ __ __ __ __ __ __ __ __ __ __ __ __ __
 72
    65
 73
     2
 40
1.905
 49
1.27
 74
     0
 49
-0.635
 74
     0
  0
LTYPE
  5
6F
330
5
100
AcDbSymbolTableRecord
100
AcDbLinetypeTableRecord
  2
PHANTOM
 70
     0
  3
Phantom ______  __  __  ______  __  __  ______
 72
    65
 73
     6
 40
12.7
 49
6.35
 74
     0
 49
-1.27
 74
     0
 49
1.27
 74
     0
 49
-1.27
 74
     0
 49
1.27
 74
     0
 49
-1.27
 74
     0
  0
LTYPE
  5
70
330
5
100
AcDbSymbolTableRecord
100
AcDbLinetypeTableRecord
  2
CENTER
 70
     0
  3
Center ____ _ ____ _ ____ _ ____ _ ____ _ ____
 72
    65
 73
     4
 40
10.16
 49
6.35
 74
     0
 49
-1.27
 74
     0
 49
1.27
 74
     0
 49
-1.27
 74
     0
  0
LTYPE
  5
71
330
5
100
AcDbSymbolTableRecord
100
AcDbLinetypeTableRecord
  2
CENTERX2
 70
     0
  3
Center (2x) ________  __  ________  __  _____
 72
    65
 73
     4
 40
20.32
 49
12.7
 74
     0
 49
-2.54
 74
     0
 49
2.54
 74
     0
 49
-2.54
 74
     0
  0
LTYPE
  5
72
330
5
100
AcDbSymbolTableRecord
100
AcDbLinetypeTableRecord
  2
DOT2
 70
     0
  3
Dot (.5x) ........................................
 72
    65
 73
     2
 40
0.635
 49
0.0
 74
     0
 49
-0.635
 74
     0
  0
ENDTAB
  0
TABLE
  2
LAYER
  5
2
330
0
100
AcDbSymbolTable
 70
    17
  0
LAYER
  5
10
330
2
100
AcDbSymbolTableRecord
100
AcDbLayerTableRecord
  2
0
 70
     0
 62
     7
  6
Continuous
370
    -3
390
F
  0
LAYER
  5
73
330
2
100
AcDbSymbolTableRecord
100
AcDbLayerTableRecord
  2
FORMAT
 70
     0
 62
     7
  6
Continuous
370
    -3
390
F
  0
LAYER
  5
74
330
2
100
AcDbSymbolTableRecord
100
AcDbLayerTableRecord
  2
YARDIMCI_GEOMETRI
 70
     0
 62
    -6
  6
Continuous
290
     0
370
    -3
390
F
  0
LAYER
  5
75
330
2
100
AcDbSymbolTableRecord
100
AcDbLayerTableRecord
  2
SAYFA_CERCEVESI
 70
     0
 62
     7
  6
Continuous
370
    25
390
F
  0
LAYER
  5
76
330
2
100
AcDbSymbolTableRecord
100
AcDbLayerTableRecord
  2
ANTET
 70
     0
 62
     7
  6
Continuous
370
    -3
390
F
  0
LAYER
  5
77
330
2
100
AcDbSymbolTableRecord
100
AcDbLayerTableRecord
  2
OLCU
 70
     0
 62
   150
  6
Continuous
370
    -3
390
F
  0
LAYER
  5
78
330
2
100
AcDbSymbolTableRecord
100
AcDbLayerTableRecord
  2
METIN
 70
     0
 62
    96
  6
Continuous
370
    -3
390
F
  0
LAYER
  5
79
330
2
100
AcDbSymbolTableRecord
100
AcDbLayerTableRecord
  2
BALON
 70
     0
 62
     5
  6
Continuous
370
    -3
390
F
  0
LAYER
  5
7A
330
2
100
AcDbSymbolTableRecord
100
AcDbLayerTableRecord
  2
VURGU
 70
     0
 62
     7
  6
Continuous
370
    -3
390
F
  0
LAYER
  5
7B
330
2
100
AcDbSymbolTableRecord
100
AcDbLayerTableRecord
  2
SILIK
 70
     0
 62
     7
  6
Continuous
370
    -3
390
F
  0
LAYER
  5
7C
330
2
100
AcDbSymbolTableRecord
100
AcDbLayerTableRecord
  2
MODEL
 70
     0
 62
     7
  6
Continuous
370
    -3
390
F
  0
LAYER
  5
7D
330
2
100
AcDbSymbolTableRecord
100
AcDbLayerTableRecord
  2
DETAYLANDıRMA
 70
     0
 62
   190
  6
Continuous
370
    -3
390
F
  0
LAYER
  5
7E
330
2
100
AcDbSymbolTableRecord
100
AcDbLayerTableRecord
  2
TOLERANS
 70
     0
 62
   230
  6
Continuous
370
    -3
390
F
  0
LAYER
  5
7F
330
2
100
AcDbSymbolTableRecord
100
AcDbLayerTableRecord
  2
MERKEZ_CIZGILERI
 70
     0
 62
    30
  6
Continuous
370
    -3
390
F
  0
LAYER
  5
80
330
2
100
AcDbSymbolTableRecord
100
AcDbLayerTableRecord
  2
KESIT-DETAY_CIZGILERI
 70
     0
 62
     7
  6
Continuous
370
    -3
390
F
  0
LAYER
  5
81
330
2
100
AcDbSymbolTableRecord
100
AcDbLayerTableRecord
  2
\U+041E\U+0421\U+0415\U+0412\U+042B\U+0415
 70
     0
 62
     7
  6
Continuous
370
    -3
390
F
  0
LAYER
  5
82
330
2
100
AcDbSymbolTableRecord
100
AcDbLayerTableRecord
  2
\U+0412\U+041E\U+0414\U+042F\U+041D\U+042B\U+0415_\U+0417\U+041D\U+0410\U+041A\U+0418
 70
     0
 62
    11
  6
Continuous
370
    -3
390
F
  0
ENDTAB
  0
TABLE
  2
STYLE
  5
3
330
0
100
AcDbSymbolTable
 70
     1
  0
STYLE
  5
11
330
3
100
AcDbSymbolTableRecord
100
AcDbTextStyleTableRecord
  2
Standard
 70
     0
 40
0.0
 41
1.0
 50
0.0
 71
     0
 42
3.5
  3
txt
  4

  0
ENDTAB
  0
TABLE
  2
VIEW
  5
6
330
0
100
AcDbSymbolTable
 70
     0
  0
ENDTAB
  0
TABLE
  2
UCS
  5
7
330
0
100
AcDbSymbolTable
 70
     0
  0
ENDTAB
  0
TABLE
  2
APPID
  5
9
330
0
100
AcDbSymbolTable
 70
     1
  0
APPID
  5
12
330
9
100
AcDbSymbolTableRecord
100
AcDbRegAppTableRecord
  2
ACAD
 70
     0
  0
ENDTAB
  0
TABLE
  2
DIMSTYLE
  5
A
330
0
100
AcDbSymbolTable
 70
     1
100
AcDbDimStyleTable
  0
DIMSTYLE
105
27
330
A
100
AcDbSymbolTableRecord
100
AcDbDimStyleTableRecord
  2
ISO-25
 70
     0
 41
2.5
 42
0.625
 43
3.75
 44
1.25
 73
     0
 74
     0
 77
     1
 78
     8
140
2.5
141
2.5
143
0.0393700787
147
0.625
171
     3
172
     1
178
     0
271
     2
272
     2
274
     3
278
    44
283
     0
284
     8
340
11
  0
ENDTAB
  0
TABLE
  2
BLOCK_RECORD
  5
1
330
0
100
AcDbSymbolTable
 70
     3
  0
BLOCK_RECORD
  5
1F
330
1
100
AcDbSymbolTableRecord
100
AcDbBlockTableRecord
  2
*Model_Space
340
22
  0
BLOCK_RECORD
  5
1B
330
1
100
AcDbSymbolTableRecord
100
AcDbBlockTableRecord
  2
*Paper_Space
340
1E
  0
BLOCK_RECORD
  5
23
330
1
100
AcDbSymbolTableRecord
100
AcDbBlockTableRecord
  2
*Paper_Space0
340
26
  0
BLOCK_RECORD
  5
A7
330
1
100
AcDbSymbolTableRecord
100
AcDbBlockTableRecord
  2
SW_CENTERMARKSYMBOL_0
340
0
102
{BLKREFS
331
B2
102
}
  0
BLOCK_RECORD
  5
C7
330
1
100
AcDbSymbolTableRecord
100
AcDbBlockTableRecord
  2
SW_CENTERMARKSYMBOL_1
340
0
102
{BLKREFS
331
D2
102
}
  0
ENDTAB
  0
ENDSEC
  0
SECTION
  2
BLOCKS
  0
BLOCK
  5
20
330
1F
100
AcDbEntity
  8
0
100
AcDbBlockBegin
  2
*Model_Space
 70
     0
 10
0.0
 20
0.0
 30
0.0
  3
*Model_Space
  1

  0
ENDBLK
  5
21
330
1F
100
AcDbEntity
  8
0
100
AcDbBlockEnd
  0
BLOCK
  5
1C
330
1B
100
AcDbEntity
 67
     1
  8
0
100
AcDbBlockBegin
  2
*Paper_Space
 70
     0
 10
0.0
 20
0.0
 30
0.0
  3
*Paper_Space
  1

  0
ENDBLK
  5
1D
330
1B
100
AcDbEntity
 67
     1
  8
0
100
AcDbBlockEnd
  0
BLOCK
  5
24
330
23
100
AcDbEntity
  8
0
100
AcDbBlockBegin
  2
*Paper_Space0
 70
     0
 10
0.0
 20
0.0
 30
0.0
  3
*Paper_Space0
  1

  0
ENDBLK
  5
25
330
23
100
AcDbEntity
  8
0
100
AcDbBlockEnd
  0
BLOCK
  5
A8
330
A7
100
AcDbEntity
  8
0
100
AcDbBlockBegin
  2
SW_CENTERMARKSYMBOL_0
 70
     0
 10
0.0
 20
0.0
 30
0.0
  3
SW_CENTERMARKSYMBOL_0
  1

  0
LINE
  5
AA
330
A7
100
AcDbEntity
  8
FORMAT
 62
     0
100
AcDbLine
 10
0.0
 20
0.0
 30
0.0
 11
0.0
 21
2.5
 31
0.0
  0
LINE
  5
AB
330
A7
100
AcDbEntity
  8
FORMAT
 62
     0
100
AcDbLine
 10
0.0
 20
0.0
 30
0.0
 11
-2.5
 21
0.0
 31
0.0
  0
LINE
  5
AC
330
A7
100
AcDbEntity
  8
FORMAT
 62
     0
100
AcDbLine
 10
0.0
 20
0.0
 30
0.0
 11
0.0
 21
-2.5
 31
0.0
  0
LINE
  5
AD
330
A7
100
AcDbEntity
  8
FORMAT
 62
     0
100
AcDbLine
 10
0.0
 20
0.0
 30
0.0
 11
2.5
 21
0.0
 31
0.0
  0
LINE
  5
AE
330
A7
100
AcDbEntity
  8
FORMAT
 62
     0
100
AcDbLine
 10
0.0
 20
5.0
 30
0.0
 11
0.0
 21
127.5
 31
0.0
  0
LINE
  5
AF
330
A7
100
AcDbEntity
  8
FORMAT
 62
     0
100
AcDbLine
 10
-5.0
 20
0.0
 30
0.0
 11
-127.5
 21
0.0
 31
0.0
  0
LINE
  5
B0
330
A7
100
AcDbEntity
  8
FORMAT
 62
     0
100
AcDbLine
 10
0.0
 20
-5.0
 30
0.0
 11
0.0
 21
-127.5
 31
0.0
  0
LINE
  5
B1
330
A7
100
AcDbEntity
  8
FORMAT
 62
     0
100
AcDbLine
 10
5.0
 20
0.0
 30
0.0
 11
127.5
 21
0.0
 31
0.0
  0
ENDBLK
  5
A9
330
A7
100
AcDbEntity
  8
0
100
AcDbBlockEnd
  0
BLOCK
  5
C8
330
C7
100
AcDbEntity
  8
0
100
AcDbBlockBegin
  2
SW_CENTERMARKSYMBOL_1
 70
     0
 10
0.0
 20
0.0
 30
0.0
  3
SW_CENTERMARKSYMBOL_1
  1

  0
LINE
  5
CA
330
C7
100
AcDbEntity
  8
FORMAT
 62
     0
100
AcDbLine
 10
0.0
 20
0.0
 30
0.0
 11
0.0
 21
2.5
 31
0.0
  0
LINE
  5
CB
330
C7
100
AcDbEntity
  8
FORMAT
 62
     0
100
AcDbLine
 10
0.0
 20
0.0
 30
0.0
 11
-2.5
 21
0.0
 31
0.0
  0
LINE
  5
CC
330
C7
100
AcDbEntity
  8
FORMAT
 62
     0
100
AcDbLine
 10
0.0
 20
0.0
 30
0.0
 11
0.0
 21
-2.5
 31
0.0
  0
LINE
  5
CD
330
C7
100
AcDbEntity
  8
FORMAT
 62
     0
100
AcDbLine
 10
0.0
 20
0.0
 30
0.0
 11
2.5
 21
0.0
 31
0.0
  0
LINE
  5
CE
330
C7
100
AcDbEntity
  8
FORMAT
 62
     0
100
AcDbLine
 10
0.0
 20
5.0
 30
0.0
 11
0.0
 21
127.5
 31
0.0
  0
LINE
  5
CF
330
C7
100
AcDbEntity
  8
FORMAT
 62
     0
100
AcDbLine
 10
-5.0
 20
0.0
 30
0.0
 11
-127.5
 21
0.0
 31
0.0
  0
LINE
  5
D0
330
C7
100
AcDbEntity
  8
FORMAT
 62
     0
100
AcDbLine
 10
0.0
 20
-5.0
 30
0.0
 11
0.0
 21
-127.5
 31
0.0
  0
LINE
  5
D1
330
C7
100
AcDbEntity
  8
FORMAT
 62
     0
100
AcDbLine
 10
5.0
 20
0.0
 30
0.0
 11
127.5
 21
0.0
 31
0.0
  0
ENDBLK
  5
C9
330
C7
100
AcDbEntity
  8
0
100
AcDbBlockEnd
  0
ENDSEC
  0
SECTION
  2
ENTITIES
  0
LINE
  5
83
330
1F
100
AcDbEntity
  8
0
  6
Continuous
 62
     7
370
    25
100
AcDbLine
 10
-0.2731489889
 20
113.5822470138
 30
0.0
 11
-0.2731489889
 21
-47.6410602382
 31
0.0
  0
LINE
  5
84
330
1F
100
AcDbEntity
  8
0
  6
Continuous
 62
     7
370
    25
100
AcDbLine
 10
249.7268510111
 20
-47.6410602382
 30
0.0
 11
249.7268510111
 21
113.5822470138
 31
0.0
  0
ARC
  5
85
330
1F
100
AcDbEntity
  8
0
  6
Continuous
 62
     7
370
    25
100
AcDbCircle
 10
249.7268510111
 20
113.5822444652
 30
0.0
 40
249.9999999999999
100
AcDbArc
 50
135.0
 51
180.0
  0
LINE
  5
86
330
1F
100
AcDbEntity
  8
0
  6
Continuous
 62
     7
370
    25
100
AcDbLine
 10
191.3385060675
 20
408.7472940633
 30
0.0
 11
72.9501550145
 21
290.358939285
 31
0.0
  0
LINE
  5
87
330
1F
100
AcDbEntity
  8
0
  6
Continuous
 62
     7
370
    25
100
AcDbLine
 10
249.7268510111
 20
113.5822470138
 30
0.0
 11
368.1152057894
 21
231.9705868909
 31
0.0
  0
LINE
  5
88
330
1F
100
AcDbEntity
  8
0
  6
Continuous
 62
     7
370
    25
100
AcDbLine
 10
124.7268510111
 20
-47.6410602382
 30
0.0
 11
249.7268510111
 21
-47.6410602382
 31
0.0
  0
LINE
  5
89
330
1F
100
AcDbEntity
  8
0
  6
Continuous
 62
     7
370
    25
100
AcDbLine
 10
-0.2731489889
 20
-47.6410602382
 30
0.0
 11
124.7268510111
 21
-47.6410602382
 31
0.0
  0
LWPOLYLINE
  5
8A
330
1F
100
AcDbEntity
  8
0
  6
Continuous
 62
     7
370
    25
100
AcDbPolyline
 90
       31
 70
   128
 43
0.0
 10
279.7268522032
 20
320.3589404771
 10
284.4310742862
 20
315.6547332952
 10
289.1219598301
 20
310.9638477513
 10
293.7862169988
 20
306.2995756814
 10
298.4106135614
 20
301.6751791188
 10
302.9820513971
 20
297.1037412831
 10
307.4875664957
 20
292.5982261846
 10
311.9144034632
 20
288.1713892171
 10
316.2500006206
 20
283.8358069608
 10
320.482049609
 20
279.6037281701
 10
324.5985996969
 20
275.4871929834
 10
328.5879385717
 20
271.4978541085
 10
332.4387711532
 20
267.6470066259
 10
336.1402046926
 20
263.9455879876
 10
339.6817189701
 20
260.4040886113
 10
343.0532855041
 20
257.0325220773
 10
346.2453377493
 20
253.840454931
 10
349.2488456018
 20
250.8369470784
 10
352.0552855976
 20
248.0305219838
 10
354.6567005165
 20
245.4291070649
 10
357.0457142837
 20
243.0400634954
 10
359.2155617721
 20
240.870216007
 10
361.1600888021
 20
238.9257038781
 10
362.8737968452
 20
237.2120107362
 10
364.3517983206
 20
235.7339943597
 10
365.5899358042
 20
234.4958568761
 10
366.5846777208
 20
233.5011149594
 10
367.3332077511
 20
232.752570028
 10
367.83340993
 20
232.2523678491
 10
368.0838686474
 20
232.0019091317
 10
368.1152057894
 20
231.9705868909
  0
LWPOLYLINE
  5
8B
330
1F
100
AcDbEntity
  8
0
  6
Continuous
 62
     7
370
    25
100
AcDbPolyline
 90
       31
 70
   128
 43
0.0
 10
191.3385060675
 20
408.7472940633
 10
191.3698283084
 20
408.7159718225
 10
191.6202870257
 20
408.4655131051
 10
192.1204892047
 20
407.9653109262
 10
192.8690266855
 20
407.2167659947
 10
193.8637686022
 20
406.2220240781
 10
195.1018986352
 20
404.9838865945
 10
196.5799075611
 20
403.505870218
 10
198.2936081536
 20
401.7921770761
 10
200.2381351836
 20
399.8476649472
 10
202.4079901226
 20
397.6778174588
 10
204.7970038898
 20
395.2887738893
 10
207.3984188087
 20
392.6873589704
 10
210.2048588045
 20
389.8809338758
 10
213.208366657
 20
386.8774260232
 10
216.4004263528
 20
383.6853588769
 10
219.7719854362
 20
380.3137923429
 10
223.3134997137
 20
376.7722929666
 10
227.0149258025
 20
373.0708743283
 10
230.8657658346
 20
369.2200268457
 10
234.85511216
 20
365.2306879708
 10
238.9716473468
 20
361.1141527841
 10
243.2037112363
 20
356.8820739934
 10
247.5393009432
 20
352.5464917371
 10
251.9661230095
 20
348.1196547696
 10
256.4716530092
 20
343.614139671
 10
261.0430908449
 20
339.0427018354
 10
265.6674874075
 20
334.4183052728
 10
270.3317445762
 20
329.7540332028
 10
275.0226301201
 20
325.063147659
 10
279.7268522032
 20
320.3589404771
  0
LINE
  5
8C
330
1F
100
AcDbEntity
  8
0
  6
Continuous
 62
     1
370
    25
100
AcDbLine
 10
-0.2731489889
 20
113.5822470138
 30
0.0
 11
249.7268510111
 21
113.5822470138
 31
0.0
  0
LWPOLYLINE
  5
8D
330
1F
100
AcDbEntity
  8
0
  6
Continuous
 62
     1
370
    25
100
AcDbPolyline
 90
       60
 70
   128
 43
0.0
 10
72.9501550145
 20
290.358939285
 10
73.0754290767
 20
290.233680124
 10
73.4508936353
 20
289.8582006642
 10
74.0754832573
 20
289.2336035916
 10
74.9474321552
 20
288.3616770455
 10
76.0642667361
 20
287.2448350141
 10
77.422816778
 20
285.8862663457
 10
79.0192377813
 20
284.2898453424
 10
80.8489997931
 20
282.460101957
 10
82.9069209345
 20
280.4021621892
 10
85.1871599503
 20
278.1219268987
 10
87.6832646377
 20
275.6258333871
 10
90.3881494947
 20
272.9209448049
 10
93.2941478737
 20
270.0149501512
 10
96.3930306084
 20
266.916074867
 10
99.6760060139
 20
263.6330808351
 10
103.1337701775
 20
260.1753259847
 10
106.7565237232
 20
256.5525854776
 10
110.5339941628
 20
252.7751113126
 10
114.4554759435
 20
248.8536323259
 10
118.509852799
 20
244.7992349813
 10
122.6856319759
 20
240.6234527776
 10
126.9709770627
 20
236.3381172368
 10
131.3537405863
 20
231.9553579042
 10
135.8214994021
 20
227.4876023481
 10
140.3615889199
 20
222.9475165555
 10
144.9611396588
 20
218.3479453275
 10
149.6071131028
 20
213.7019718835
 10
154.2863422133
 20
209.0227688501
 10
158.9855593689
 20
204.323538656
 10
163.6914466567
 20
199.6176476428
 10
168.390665675
 20
194.9184323499
 10
173.0698947854
 20
190.2391995141
 10
177.7158682294
 20
185.5932260701
 10
182.3154171057
 20
180.9936846444
 10
186.8555066235
 20
176.4535839507
 10
191.3232696302
 20
171.9858283946
 10
195.7060289629
 20
167.603069062
 10
199.9913719542
 20
163.31771862
 10
204.1671541579
 20
159.1419364163
 10
208.2215291508
 20
155.0875688741
 10
212.1430155881
 20
151.1660898873
 10
215.9204823025
 20
147.3886157224
 10
219.5432377107
 20
143.7658603141
 10
223.0010000117
 20
140.3080905625
 10
226.2839791425
 20
137.025126333
 10
229.3828544266
 20
133.9262361476
 10
232.2888565309
 20
131.0202414939
 10
234.9937451132
 20
128.3153529117
 10
237.4898460753
 20
125.8192444989
 10
239.7700888164
 20
123.5390092084
 10
241.8280062325
 20
121.4810843417
 10
243.6577719696
 20
119.6513260553
 10
245.2541855223
 20
118.0549050519
 10
246.6127392895
 20
116.6963512847
 10
247.7295738704
 20
115.5795241544
 10
248.6015227683
 20
114.707567806
 10
249.2261123903
 20
114.0829856345
 10
249.6015769489
 20
113.7075210759
 10
249.7268510111
 20
113.5822470138
  0
LINE
  5
8E
330
1F
100
AcDbEntity
  8
0
  6
Continuous
 62
     7
370
    25
100
AcDbLine
 10
-367.7145558812
 20
320.3589404771
 30
0.0
 11
-367.7145558812
 21
201.9705856988
 31
0.0
  0
LINE
  5
8F
330
1F
100
AcDbEntity
  8
0
  6
Continuous
 62
     7
370
    25
100
AcDbLine
 10
-117.7145558812
 20
201.9705856988
 30
0.0
 11
-117.7145558812
 21
320.3589404771
 31
0.0
  0
LINE
  5
90
330
1F
100
AcDbEntity
  8
0
  6
Continuous
 62
     7
370
    25
100
AcDbLine
 10
-367.7145558812
 20
201.9705856988
 30
0.0
 11
-367.7145558812
 21
113.5822470138
 31
0.0
  0
LINE
  5
91
330
1F
100
AcDbEntity
  8
0
  6
Continuous
 62
     7
370
    25
100
AcDbLine
 10
-117.7145558812
 20
113.5822470138
 30
0.0
 11
-117.7145558812
 21
201.9705856988
 31
0.0
  0
LINE
  5
92
330
1F
100
AcDbEntity
  8
0
  6
Continuous
 62
     7
370
    25
100
AcDbLine
 10
-367.7145558812
 20
113.5822470138
 30
0.0
 11
-367.7145558812
 21
-47.6410602382
 31
0.0
  0
LINE
  5
93
330
1F
100
AcDbEntity
  8
0
  6
Continuous
 62
     7
370
    25
100
AcDbLine
 10
-117.7145558812
 20
-47.6410602382
 30
0.0
 11
-117.7145558812
 21
113.5822470138
 31
0.0
  0
LWPOLYLINE
  5
94
330
1F
100
AcDbEntity
  8
0
  6
Continuous
 62
     7
370
    25
100
AcDbPolyline
 90
      119
 70
   128
 43
0.0
 10
-367.7145558812
 20
320.3589404771
 10
-367.5373959757
 20
315.6547332952
 10
-367.0064079977
 20
310.9638477513
 10
-366.1230969645
 20
306.2995756814
 10
-364.8899811722
 20
301.6751791188
 10
-363.3105400421
 20
297.1037412831
 10
-361.3892588235
 20
292.5982261846
 10
-359.1315764405
 20
288.1713892171
 10
-356.5439003922
 20
283.8358069608
 10
-353.63356205
 20
279.6037281701
 10
-350.4088166572
 20
275.4871929834
 10
-346.8787986256
 20
271.4978541085
 10
-343.0535140849
 20
267.6470066259
 10
-338.94380363
 20
263.9455879876
 10
-334.5613274194
 20
260.4040886113
 10
-329.9184981204
 20
257.0325220773
 10
-325.028480909
 20
253.840454931
 10
-319.905133865
 20
250.8369470784
 10
-314.5629856206
 20
248.0305219838
 10
-309.017168305
 20
245.4291070649
 10
-303.2834138192
 20
243.0400634954
 10
-297.3779718794
 20
240.870216007
 10
-291.3175764896
 20
238.9257038781
 10
-285.119412414
 20
237.2120107362
 10
-278.8010481216
 20
235.7339943597
 10
-272.3803929455
 20
234.4958568761
 10
-265.8756467916
 20
233.5011149594
 10
-259.3052461214
 20
232.752570028
 10
-252.6878192492
 20
232.2523678491
 10
-246.0421211488
 20
232.0019091317
 10
-239.3869906135
 20
232.0019091317
 10
-232.7412925131
 20
232.2523678491
 10
-226.1238656409
 20
232.752570028
 10
-219.5534649707
 20
233.5011149594
 10
-213.0487188168
 20
234.4958568761
 10
-206.6280636407
 20
235.7339943597
 10
-200.3096993483
 20
237.2120107362
 10
-194.1115352727
 20
238.9257038781
 10
-188.0511398829
 20
240.870216007
 10
-182.1456979431
 20
243.0400634954
 10
-176.4119434573
 20
245.4291070649
 10
-170.8661261417
 20
248.0305219838
 10
-165.5239778973
 20
250.8369470784
 10
-160.4006308533
 20
253.840454931
 10
-155.5106136419
 20
257.0325220773
 10
-150.8677843429
 20
260.4040886113
 10
-146.4853081323
 20
263.9455879876
 10
-142.3755976774
 20
267.6470066259
 10
-138.5503131367
 20
271.4978541085
 10
-135.0202951051
 20
275.4871929834
 10
-131.7955497123
 20
279.6037281701
 10
-128.8852113701
 20
283.8358069608
 10
-126.2975353218
 20
288.1713892171
 10
-124.0398529388
 20
292.5982261846
 10
-122.1185717203
 20
297.1037412831
 10
-120.5391305901
 20
301.6751791188
 10
-119.3060147978
 20
306.2995756814
 10
-118.4227037646
 20
310.9638477513
 10
-117.8917157866
 20
315.6547332952
 10
-117.7145558812
 20
320.3589404771
 10
-117.8917157866
 20
325.063147659
 10
-118.4227037646
 20
329.7540332028
 10
-119.3060147978
 20
334.4183052728
 10
-120.5391305901
 20
339.0427018354
 10
-122.1185717203
 20
343.614139671
 10
-124.0398529388
 20
348.1196547696
 10
-126.2975353218
 20
352.5464917371
 10
-128.8852113701
 20
356.8820739934
 10
-131.7955497123
 20
361.1141527841
 10
-135.0202951051
 20
365.2306879708
 10
-138.5503131367
 20
369.2200268457
 10
-142.3755976774
 20
373.0708743283
 10
-146.4853081323
 20
376.7722929666
 10
-150.8677843429
 20
380.3137923429
 10
-155.5106136419
 20
383.6853588769
 10
-160.4006308533
 20
386.8774260232
 10
-165.5239778973
 20
389.8809338758
 10
-170.8661261417
 20
392.6873589704
 10
-176.4119434573
 20
395.2887738893
 10
-182.1456979431
 20
397.6778174588
 10
-188.0511398829
 20
399.8476649472
 10
-194.1115352727
 20
401.7921770761
 10
-200.3096993483
 20
403.505870218
 10
-206.6280636407
 20
404.9838865945
 10
-213.0487188168
 20
406.2220240781
 10
-219.5534649707
 20
407.2167659947
 10
-226.1238656409
 20
407.9653109262
 10
-232.7412925131
 20
408.4655131051
 10
-239.3869906135
 20
408.7159718225
 10
-246.0421211488
 20
408.7159718225
 10
-252.6878192492
 20
408.4655131051
 10
-259.3052461214
 20
407.9653109262
 10
-265.8756467916
 20
407.2167659947
 10
-272.3803929455
 20
406.2220240781
 10
-278.8010481216
 20
404.9838865945
 10
-285.119412414
 20
403.505870218
 10
-291.3175764896
 20
401.7921770761
 10
-297.3779718794
 20
399.8476649472
 10
-303.2834138192
 20
397.6778174588
 10
-309.017168305
 20
395.2887738893
 10
-314.5629856206
 20
392.6873589704
 10
-319.905133865
 20
389.8809338758
 10
-325.028480909
 20
386.8774260232
 10
-329.9184981204
 20
383.6853588769
 10
-334.5613274194
 20
380.3137923429
 10
-338.94380363
 20
376.7722929666
 10
-343.0535140849
 20
373.0708743283
 10
-346.8787986256
 20
369.2200268457
 10
-350.4088166572
 20
365.2306879708
 10
-353.63356205
 20
361.1141527841
 10
-356.5439003922
 20
356.8820739934
 10
-359.1315764405
 20
352.5464917371
 10
-361.3892588235
 20
348.1196547696
 10
-363.3105400421
 20
343.614139671
 10
-364.8899811722
 20
339.0427018354
 10
-366.1230969645
 20
334.4183052728
 10
-367.0064079977
 20
329.7540332028
 10
-367.5373959757
 20
325.063147659
 10
-367.7145558812
 20
320.3589404771
  0
LWPOLYLINE
  5
95
330
1F
100
AcDbEntity
  8
0
  6
Continuous
 62
     7
370
    25
100
AcDbPolyline
 90
      112
 70
   128
 43
0.0
 10
-352.9145586707
 20
320.3589404771
 10
-352.7380544163
 20
324.7674490163
 10
-352.209115348
 20
329.1618312547
 10
-351.3294327475
 20
333.5280204961
 10
-350.1018154837
 20
337.852009649
 10
-348.5302123643
 20
342.1200002381
 10
-346.6196525313
 20
346.3182533929
 10
-344.3762454606
 20
350.4333580682
 10
-341.8071884133
 20
354.4521118352
 10
-338.9207142807
 20
358.361669893
 10
-335.7260543324
 20
362.1494854638
 10
-332.2334531165
 20
365.8034588048
 10
-328.4540939547
 20
369.3118179986
 10
-324.4000914909
 20
372.6634169767
 10
-320.0844171859
 20
375.8474374959
 10
-315.520906768
 20
378.8537169644
 10
-310.7241782762
 20
381.6725994298
 10
-305.7095948078
 20
384.2950845906
 10
-300.4932198144
 20
386.7127979943
 10
-295.0917574979
 20
388.9179314324
 10
-289.5225192822
 20
390.9034515569
 10
-283.803338132
 20
392.6629806707
 10
-277.9525387503
 20
394.1909159371
 10
-271.9888630725
 20
395.4823399732
 10
-265.9314106621
 20
396.5331400582
 10
-259.7995884187
 20
397.3399187276
 10
-253.6130379356
 20
397.9001129815
 10
-247.3915763601
 20
398.2119048783
 10
-241.1551327148
 20
398.2743109414
 10
-234.9236839853
 20
398.0871225545
 10
-228.7171920232
 20
397.6509655664
 10
-222.5555385865
 20
396.9672108838
 10
-216.4584584005
 20
396.0380638787
 10
-210.4454878188
 20
394.866474981
 10
-204.5358810045
 20
393.4562290856
 10
-198.7485754706
 20
391.8118263433
 10
-193.1021045364
 20
389.9385417649
 10
-187.6145544864
 20
387.8423954198
 10
-182.3035086907
 20
385.5300332257
 10
-177.1859768249
 20
383.0089355657
 10
-172.2783538915
 20
380.2871490666
 10
-167.5963643409
 20
377.3734058091
 10
-163.1549912907
 20
374.2770041177
 10
-158.968480251
 20
371.007897968
 10
-155.0502273656
 20
367.5765479753
 10
-151.4127943136
 20
363.9939511964
 10
-148.0678263522
 20
360.2715815255
 10
-145.0260374166
 20
356.4213300893
 10
-142.297172866
 20
352.4555946538
 10
-139.8899796821
 20
348.3870114038
 10
-137.8121692158
 20
344.2286635587
 10
-136.070387385
 20
339.9938727567
 10
-134.6702146746
 20
335.6961692521
 10
-133.6161437847
 20
331.3493217179
 10
-132.9115498282
 20
326.967277641
 10
-132.5586903311
 20
322.5640739152
 10
-132.5586903311
 20
318.153807039
 10
-132.9115498282
 20
313.7506033132
 10
-133.6161437847
 20
309.3685592363
 10
-134.6702146746
 20
305.0217117021
 10
-136.070387385
 20
300.7240081975
 10
-137.8121692158
 20
296.4891875932
 10
-139.8899796821
 20
292.3308695504
 10
-142.297172866
 20
288.2622863004
 10
-145.0260374166
 20
284.2965508649
 10
-148.0678263522
 20
280.4462994287
 10
-151.4127943136
 20
276.7239297578
 10
-155.0502273656
 20
273.1413329789
 10
-158.968480251
 20
269.7099829862
 10
-163.1549912907
 20
266.4408768365
 10
-167.5963643409
 20
263.3444751451
 10
-172.2783538915
 20
260.4307318875
 10
-177.1859768249
 20
257.7089453885
 10
-182.3035086907
 20
255.1878477285
 10
-187.6145544864
 20
252.8754855344
 10
-193.1021045364
 20
250.7793391893
 10
-198.7485754706
 20
248.9060546109
 10
-204.5358810045
 20
247.2616518685
 10
-210.4454878188
 20
245.8514059732
 10
-216.4584584005
 20
244.6798170755
 10
-222.5555385865
 20
243.7506700704
 10
-228.7171920232
 20
243.0669153878
 10
-234.9236839853
 20
242.6307583997
 10
-241.1551327148
 20
242.4435700128
 10
-247.3915763601
 20
242.5059760759
 10
-253.6130379356
 20
242.8177679727
 10
-259.7995884187
 20
243.3779622266
 10
-265.9314106621
 20
244.1847408959
 10
-271.9888630725
 20
245.2355111787
 10
-277.9525387503
 20
246.526965017
 10
-283.803338132
 20
248.0549002835
 10
-289.5225192822
 20
249.8144293973
 10
-295.0917574979
 20
251.7999495217
 10
-300.4932198144
 20
254.0050829599
 10
-305.7095948078
 20
256.4227665612
 10
-310.7241782762
 20
259.0452815244
 10
-315.520906768
 20
261.8641639897
 10
-320.0844171859
 20
264.8704434583
 10
-324.4000914909
 20
268.0544639775
 10
-328.4540939547
 20
271.4060331533
 10
-332.2334531165
 20
274.9144221494
 10
-335.7260543324
 20
278.5683954904
 10
-338.9207142807
 20
282.3562110612
 10
-341.8071884133
 20
286.265769119
 10
-344.3762454606
 20
290.284522886
 10
-346.6196525313
 20
294.3996275613
 10
-348.5302123643
 20
298.597880716
 10
-350.1018154837
 20
302.8658713052
 10
-351.3294327475
 20
307.1898604581
 10
-352.209115348
 20
311.5560496995
 10
-352.7380544163
 20
315.9504319379
 10
-352.9145586707
 20
320.3589404771
  0
LINE
  5
96
330
1F
100
AcDbEntity
  8
0
  6
Continuous
 62
     7
370
    25
100
AcDbLine
 10
-367.7145558812
 20
-47.6410602382
 30
0.0
 11
-117.7145558812
 21
-47.6410602382
 31
0.0
  0
LWPOLYLINE
  5
97
330
1F
100
AcDbEntity
  8
0
  6
Continuous
 62
     1
370
    25
100
AcDbPolyline
 90
       31
 70
   128
 43
0.0
 10
-242.7145558812
 20
113.5822470138
 10
-236.0617839202
 20
113.7075210759
 10
-229.4278703101
 20
114.0829856345
 10
-222.8316179879
 20
114.707567806
 10
-216.2917274453
 20
115.5795241544
 10
-209.8267357267
 20
116.6963512847
 10
-203.4549656726
 20
118.0549050519
 10
-197.1944849409
 20
119.6513260553
 10
-191.0630333639
 20
121.4810843417
 10
-185.0779931463
 20
123.5390092084
 10
-179.25632926
 20
125.8192444989
 10
-173.6145484663
 20
128.3153529117
 10
-168.168635986
 20
131.0202414939
 10
-162.9340294219
 20
133.9262361476
 10
-157.9255777813
 20
137.025126333
 10
-153.1574669696
 20
140.3080905625
 10
-148.64321234
 20
143.7658603141
 10
-144.39561399
 20
147.3886157224
 10
-140.4267120577
 20
151.1660898873
 10
-136.7477494694
 20
155.0875688741
 10
-133.369171939
 20
159.1419364163
 10
-130.3005385615
 20
163.31771862
 10
-127.5505590655
 20
167.603069062
 10
-125.1270193077
 20
171.9858283946
 10
-123.0368036248
 20
176.4535839507
 10
-121.2858203269
 20
180.9936846444
 10
-119.8790389515
 20
185.5932260701
 10
-118.8204530097
 20
190.2391995141
 10
-118.113057635
 20
194.9184323499
 10
-117.7588570334
 20
199.6176476428
 10
-117.7145558812
 20
201.9705856988
  0
LWPOLYLINE
  5
98
330
1F
100
AcDbEntity
  8
0
  6
Continuous
 62
     1
370
    25
100
AcDbPolyline
 90
       31
 70
   128
 43
0.0
 10
-367.7145558812
 20
201.9705856988
 10
-367.6702547289
 20
199.6176476428
 10
-367.3160541273
 20
194.9184323499
 10
-366.6086587526
 20
190.2391995141
 10
-365.5500728108
 20
185.5932260701
 10
-364.1432914354
 20
180.9936846444
 10
-362.3923081375
 20
176.4535839507
 10
-360.3020924546
 20
171.9858283946
 10
-357.8785526968
 20
167.603069062
 10
-355.1285732008
 20
163.31771862
 10
-352.0599398233
 20
159.1419364163
 10
-348.6813622929
 20
155.0875688741
 10
-345.0023997046
 20
151.1660898873
 10
-341.0334977723
 20
147.3886157224
 10
-336.7858994223
 20
143.7658603141
 10
-332.2716447927
 20
140.3080905625
 10
-327.503533981
 20
137.025126333
 10
-322.4950823404
 20
133.9262361476
 10
-317.2604757763
 20
131.0202414939
 10
-311.814563296
 20
128.3153529117
 10
-306.1727825023
 20
125.8192444989
 10
-300.351118616
 20
123.5390092084
 10
-294.3660783984
 20
121.4810843417
 10
-288.2346268214
 20
119.6513260553
 10
-281.9741460897
 20
118.0549050519
 10
-275.6023760356
 20
116.6963512847
 10
-269.1373843171
 20
115.5795241544
 10
-262.5974937744
 20
114.707567806
 10
-256.0012414522
 20
114.0829856345
 10
-249.3673278421
 20
113.7075210759
 10
-242.7145558812
 20
113.5822470138
  0
LWPOLYLINE
  5
99
330
1F
100
AcDbEntity
  8
0
  6
Continuous
 62
     1
370
    25
100
AcDbPolyline
 90
       27
 70
   128
 43
0.0
 10
-314.3814224221
 20
261.164763088
 10
-310.7241782762
 20
263.2842446515
 10
-305.7095948078
 20
265.9067596147
 10
-300.4932198144
 20
268.324443216
 10
-295.0917574979
 20
270.5295766542
 10
-289.5225192822
 20
272.5150967786
 10
-283.803338132
 20
274.2746556947
 10
-277.9525387503
 20
275.8025909612
 10
-271.9888630725
 20
277.0940149972
 10
-265.9314106621
 20
278.14478528
 10
-259.7995884187
 20
278.9515639493
 10
-253.6130379356
 20
279.5117582032
 10
-247.3915763601
 20
279.8235501001
 10
-241.1551327148
 20
279.8859561631
 10
-234.9236839853
 20
279.6987677762
 10
-228.7171920232
 20
279.2626107881
 10
-222.5555385865
 20
278.5788561055
 10
-216.4584584005
 20
277.6497091004
 10
-210.4454878188
 20
276.4781202027
 10
-204.5358810045
 20
275.0678743074
 10
-198.7485754706
 20
273.4235013673
 10
-193.1021045364
 20
271.550216789
 10
-187.6145544864
 20
269.4540406415
 10
-182.3035086907
 20
267.1417082498
 10
-177.1859768249
 20
264.6205807874
 10
-172.2783538915
 20
261.8987942884
 10
-171.0476893402
 20
261.164763088
  0
LINE
  5
9A
330
1F
100
AcDbEntity
  8
0
  6
Continuous
 62
     1
370
    25
100
AcDbLine
 10
-242.7145558812
 20
113.5822470138
 30
0.0
 11
-117.7145558812
 21
113.5822470138
 31
0.0
  0
LINE
  5
9B
330
1F
100
AcDbEntity
  8
0
  6
Continuous
 62
     1
370
    25
100
AcDbLine
 10
-367.7145558812
 20
113.5822470138
 30
0.0
 11
-242.7145558812
 21
113.5822470138
 31
0.0
  0
LINE
  5
9C
330
1F
100
AcDbEntity
  8
0
  6
Continuous
 62
     7
370
    25
100
AcDbLine
 10
279.7268522032
 20
749.0328725705
 30
0.0
 11
161.3385048754
 21
749.0328725705
 31
0.0
  0
LINE
  5
9D
330
1F
100
AcDbEntity
  8
0
  6
Continuous
 62
     7
370
    25
100
AcDbLine
 10
161.3385048754
 20
499.0328725705
 30
0.0
 11
279.7268522032
 21
499.0328725705
 31
0.0
  0
LINE
  5
9E
330
1F
100
AcDbEntity
  8
0
  6
Continuous
 62
     7
370
    25
100
AcDbLine
 10
161.3385048754
 20
749.0328725705
 30
0.0
 11
124.7268510111
 21
749.0328725705
 31
0.0
  0
LINE
  5
9F
330
1F
100
AcDbEntity
  8
0
  6
Continuous
 62
     7
370
    25
100
AcDbLine
 10
124.7268510111
 20
499.0328725705
 30
0.0
 11
161.3385048754
 21
499.0328725705
 31
0.0
  0
CIRCLE
  5
A0
330
1F
100
AcDbEntity
  8
0
  6
Continuous
 62
     7
370
    25
100
AcDbCircle
 10
124.7268510111
 20
624.0328725705
 30
0.0
 40
110.2
  0
CIRCLE
  5
A1
330
1F
100
AcDbEntity
  8
0
  6
Continuous
 62
     7
370
    25
100
AcDbCircle
 10
124.7268510111
 20
624.0328725705
 30
0.0
 40
125.0
  0
LWPOLYLINE
  5
A2
330
1F
100
AcDbEntity
  8
0
  6
Continuous
 62
     7
370
    25
100
AcDbPolyline
 90
       61
 70
   128
 43
0.0
 10
279.7268522032
 20
749.0328725705
 10
284.4310742862
 20
748.8557126651
 10
289.1219598301
 20
748.3247246871
 10
293.7862169988
 20
747.4414136539
 10
298.4106135614
 20
746.2082978616
 10
302.9820513971
 20
744.6288567314
 10
307.4875664957
 20
742.7075755129
 10
311.9144034632
 20
740.4498931298
 10
316.2500006206
 20
737.8622170816
 10
320.482049609
 20
734.9518787394
 10
324.5985996969
 20
731.7271333466
 10
328.5879385717
 20
728.197115315
 10
332.4387711532
 20
724.3718307743
 10
336.1402046926
 20
720.2621203194
 10
339.6817189701
 20
715.8796441088
 10
343.0532855041
 20
711.2368148098
 10
346.2453377493
 20
706.3467975984
 10
349.2488456018
 20
701.2234505544
 10
352.0552855976
 20
695.88130231
 10
354.6567005165
 20
690.3354849944
 10
357.0457142837
 20
684.6017305086
 10
359.2155617721
 20
678.6962885687
 10
361.1600888021
 20
672.6358931789
 10
362.8737968452
 20
666.4377291033
 10
364.3517983206
 20
660.119364811
 10
365.5899358042
 20
653.6987096349
 10
366.5846777208
 20
647.193963481
 10
367.3332077511
 20
640.6235628108
 10
367.83340993
 20
634.0061359385
 10
368.0838686474
 20
627.3604378382
 10
368.0838686474
 20
620.7053073028
 10
367.83340993
 20
614.0596092025
 10
367.3332077511
 20
607.4421823303
 10
366.5846777208
 20
600.8717816601
 10
365.5899358042
 20
594.3670355061
 10
364.3517983206
 20
587.9463803301
 10
362.8737968452
 20
581.6280160377
 10
361.1600888021
 20
575.4298519621
 10
359.2155617721
 20
569.3694565723
 10
357.0457142837
 20
563.4640146325
 10
354.6567005165
 20
557.7302601466
 10
352.0552855976
 20
552.184442831
 10
349.2488456018
 20
546.8422945867
 10
346.2453377493
 20
541.7189475427
 10
343.0532855041
 20
536.8289303312
 10
339.6817189701
 20
532.1861010323
 10
336.1402046926
 20
527.8036248217
 10
332.4387711532
 20
523.6939143667
 10
328.5879385717
 20
519.8686298261
 10
324.5985996969
 20
516.3386117945
 10
320.482049609
 20
513.1138664017
 10
316.2500006206
 20
510.2035280595
 10
311.9144034632
 20
507.6158520112
 10
307.4875664957
 20
505.3581696282
 10
302.9820513971
 20
503.4368884096
 10
298.4106135614
 20
501.8574472795
 10
293.7862169988
 20
500.6243314872
 10
289.1219598301
 20
499.7410204539
 10
284.4310742862
 20
499.210032476
 10
279.7268522032
 20
499.0328725705
 10
279.7268522032
 20
499.0328725705
  0
LWPOLYLINE
  5
A3
330
1F
100
AcDbEntity
  8
0
  6
Continuous
 62
     7
370
    25
100
AcDbPolyline
 90
       23
 70
   128
 43
0.0
 10
215.5237463362
 20
686.4825587998
 10
213.3730021365
 20
681.8115365038
 10
211.1678686984
 20
676.4100741873
 10
209.1823485739
 20
670.8408359716
 10
207.4227971084
 20
665.1216548214
 10
205.8948618419
 20
659.2708554397
 10
204.6034378059
 20
653.3071797619
 10
203.552652622
 20
647.2497273514
 10
202.7458739527
 20
641.1179051081
 10
202.1856871493
 20
634.931354625
 10
201.8738952525
 20
628.7098930495
 10
201.8114891894
 20
622.4734494042
 10
201.9986626752
 20
616.2420006747
 10
202.4348271139
 20
610.0355087126
 10
203.1185817964
 20
603.8738552759
 10
204.0477362521
 20
597.7767750899
 10
205.2193102486
 20
591.7638045082
 10
206.629556144
 20
585.8541976938
 10
208.2739588864
 20
580.0668921599
 10
210.1472434647
 20
574.4204212258
 10
212.2434121616
 20
568.9328711758
 10
214.5557445534
 20
563.6218253801
 10
215.5237463362
 20
561.5831863413
  0
LWPOLYLINE
  5
A4
330
1F
100
AcDbEntity
  8
0
  6
Continuous
 62
     1
370
    25
100
AcDbPolyline
 90
       31
 70
   128
 43
0.0
 10
249.7268510111
 20
624.0328725705
 10
249.6015769489
 20
617.3801006096
 10
249.2261123903
 20
610.7461869994
 10
248.6015227683
 20
604.1499346773
 10
247.7295738704
 20
597.6100441346
 10
246.6127392895
 20
591.1450524161
 10
245.2541855223
 20
584.773282362
 10
243.6577719696
 20
578.5128016303
 10
241.8280062325
 20
572.3813500533
 10
239.7700888164
 20
566.3963098357
 10
237.4898460753
 20
560.5746459494
 10
234.9937451132
 20
554.9328651557
 10
232.2888565309
 20
549.4869526754
 10
229.3828544266
 20
544.2523461113
 10
226.2839791425
 20
539.2438944707
 10
223.0010000117
 20
534.475783659
 10
219.5432377107
 20
529.9615290294
 10
215.9204823025
 20
525.7139306793
 10
212.1430155881
 20
521.7450287471
 10
208.2215291508
 20
518.0660661588
 10
204.1671541579
 20
514.6874886284
 10
199.9913719542
 20
511.6188552508
 10
195.7060289629
 20
508.8688757548
 10
191.3232696302
 20
506.4453359971
 10
186.8555066235
 20
504.3551203141
 10
182.3154171057
 20
502.6041370163
 10
177.7158682294
 20
501.1973556409
 10
173.0698947854
 20
500.1387696991
 10
168.390665675
 20
499.4313743243
 10
163.6914466567
 20
499.0771737228
 10
161.3385048754
 20
499.0328725705
  0
LWPOLYLINE
  5
A5
330
1F
100
AcDbEntity
  8
0
  6
Continuous
 62
     1
370
    25
100
AcDbPolyline
 90
       31
 70
   128
 43
0.0
 10
161.3385048754
 20
749.0328725705
 10
163.6914466567
 20
748.9885714183
 10
168.390665675
 20
748.6343708167
 10
173.0698947854
 20
747.9269754419
 10
177.7158682294
 20
746.8683895001
 10
182.3154171057
 20
745.4616081247
 10
186.8555066235
 20
743.7106248269
 10
191.3232696302
 20
741.6204091439
 10
195.7060289629
 20
739.1968693862
 10
199.9913719542
 20
736.4468898902
 10
204.1671541579
 20
733.3782565126
 10
208.2215291508
 20
729.9996789823
 10
212.1430155881
 20
726.320716394
 10
215.9204823025
 20
722.3518144617
 10
219.5432377107
 20
718.1042161117
 10
223.0010000117
 20
713.5899614821
 10
226.2839791425
 20
708.8218506703
 10
229.3828544266
 20
703.8133990297
 10
232.2888565309
 20
698.5787924657
 10
234.9937451132
 20
693.1328799853
 10
237.4898460753
 20
687.4910991917
 10
239.7700888164
 20
681.6694353054
 10
241.8280062325
 20
675.6843950877
 10
243.6577719696
 20
669.5529435108
 10
245.2541855223
 20
663.2924627791
 10
246.6127392895
 20
656.920692725
 10
247.7295738704
 20
650.4557010064
 10
248.6015227683
 20
643.9158104638
 10
249.2261123903
 20
637.3195581416
 10
249.6015769489
 20
630.6856445315
 10
249.7268510111
 20
624.0328725705
  0
LWPOLYLINE
  5
A6
330
1F
100
AcDbEntity
  8
0
  6
Continuous
 62
     1
370
    25
100
AcDbPolyline
 90
       51
 70
   128
 43
0.0
 10
146.1734608807
 20
732.1258064637
 10
143.845422665
 20
731.4201321731
 10
139.5774553589
 20
729.8485290537
 10
135.3791956849
 20
727.9379692206
 10
131.2640914753
 20
725.69456215
 10
127.2453246698
 20
723.1255051026
 10
123.3357687075
 20
720.2390309701
 10
119.5479468502
 20
717.0443710218
 10
115.893993067
 20
713.5517698059
 10
112.3856115214
 20
709.7724106441
 10
109.0340414144
 20
705.7184081802
 10
105.8500171699
 20
701.4027338753
 10
102.843739564
 20
696.8392234573
 10
100.0248384722
 20
692.0424949656
 10
97.4023439981
 20
687.0279114971
 10
94.9846566714
 20
681.8115365038
 10
92.7795176454
 20
676.4100741873
 10
90.7939975209
 20
670.8408359716
 10
89.0344497807
 20
665.1216548214
 10
87.5065182395
 20
659.2708554397
 10
86.2150867529
 20
653.3071797619
 10
85.164301569
 20
647.2497273514
 10
84.3575266249
 20
641.1179051081
 10
83.7973435469
 20
634.931354625
 10
83.4855479248
 20
628.7098930495
 10
83.4231381364
 20
622.4734494042
 10
83.6103153475
 20
616.2420006747
 10
84.0464797862
 20
610.0355087126
 10
84.7302344687
 20
603.8738552759
 10
85.6593851991
 20
597.7767750899
 10
86.8309629209
 20
591.7638045082
 10
88.2412088163
 20
585.8541976938
 10
89.8856078334
 20
580.0668921599
 10
91.7588924117
 20
574.4204212258
 10
93.8550611086
 20
568.9328711758
 10
96.1673990883
 20
563.6218253801
 10
98.6885004736
 20
558.5042935143
 10
101.4102888353
 20
553.5966705809
 10
104.3240451314
 20
548.9146810303
 10
107.4204356469
 20
544.4733079801
 10
110.6895417966
 20
540.2867969403
 10
114.1208917893
 20
536.368544055
 10
117.7034946218
 20
532.7311110029
 10
121.4258731402
 20
529.3861430416
 10
125.2761039128
 20
526.344354106
 10
129.2418534927
 20
523.6154895554
 10
133.3104181163
 20
521.2082963715
 10
137.4687659614
 20
519.1304859052
 10
141.7035744585
 20
517.3887040744
 10
146.0012798257
 20
515.988531364
 10
146.1734608807
 20
515.9399386773
  0
INSERT
  5
B2
330
1F
100
AcDbEntity
  8
FORMAT
 62
     7
100
AcDbBlockReference
  2
SW_CENTERMARKSYMBOL_0
 10
124.7268510111
 20
624.0328725705
 30
0.0
  0
LINE
  5
B3
330
1F
100
AcDbEntity
  8
0
  6
Continuous
 62
     7
370
    25
100
AcDbLine
 10
433.9467469606
 20
113.5822470138
 30
0.0
 11
433.9467469606
 21
-47.6410602382
 31
0.0
  0
LINE
  5
B4
330
1F
100
AcDbEntity
  8
0
  6
Continuous
 62
     7
370
    25
100
AcDbLine
 10
683.9467469606
 20
-47.6410602382
 30
0.0
 11
683.9467469606
 21
113.5822470138
 31
0.0
  0
LINE
  5
B5
330
1F
100
AcDbEntity
  8
0
  6
Continuous
 62
     7
370
    25
100
AcDbLine
 10
683.9467469606
 20
113.5822470138
 30
0.0
 11
683.9467469606
 21
201.9705856988
 31
0.0
  0
LINE
  5
B6
330
1F
100
AcDbEntity
  8
0
  6
Continuous
 62
     7
370
    25
100
AcDbLine
 10
433.9467469606
 20
201.9705856988
 30
0.0
 11
433.9467469606
 21
113.5822470138
 31
0.0
  0
LINE
  5
B7
330
1F
100
AcDbEntity
  8
0
  6
Continuous
 62
     7
370
    25
100
AcDbLine
 10
433.9467469606
 20
320.3589404771
 30
0.0
 11
433.9467469606
 21
201.9705856988
 31
0.0
  0
LINE
  5
B8
330
1F
100
AcDbEntity
  8
0
  6
Continuous
 62
     7
370
    25
100
AcDbLine
 10
683.9467469606
 20
201.9705856988
 30
0.0
 11
683.9467469606
 21
320.3589404771
 31
0.0
  0
LINE
  5
B9
330
1F
100
AcDbEntity
  8
0
  6
Continuous
 62
     7
370
    25
100
AcDbLine
 10
433.9467469606
 20
-47.6410602382
 30
0.0
 11
683.9467469606
 21
-47.6410602382
 31
0.0
  0
LWPOLYLINE
  5
BA
330
1F
100
AcDbEntity
  8
0
  6
Continuous
 62
     7
370
    25
100
AcDbPolyline
 90
       60
 70
   128
 43
0.0
 10
433.9467469606
 20
320.3589404771
 10
434.123906866
 20
325.063147659
 10
434.654894844
 20
329.7540332028
 10
435.5382058773
 20
334.4183052728
 10
436.7713216695
 20
339.0427018354
 10
438.3507627997
 20
343.614139671
 10
440.2720440182
 20
348.1196547696
 10
442.5297264013
 20
352.5464917371
 10
445.1174024496
 20
356.8820739934
 10
448.0277407917
 20
361.1141527841
 10
451.2524861845
 20
365.2306879708
 10
454.7825042161
 20
369.2200268457
 10
458.6077887568
 20
373.0708743283
 10
462.7174992117
 20
376.7722929666
 10
467.0999754223
 20
380.3137923429
 10
471.7428047213
 20
383.6853588769
 10
476.6328219327
 20
386.8774260232
 10
481.7561689767
 20
389.8809338758
 10
487.0983172211
 20
392.6873589704
 10
492.6441345367
 20
395.2887738893
 10
498.3778890225
 20
397.6778174588
 10
504.2833309624
 20
399.8476649472
 10
510.3437263522
 20
401.7921770761
 10
516.5418904278
 20
403.505870218
 10
522.8602547202
 20
404.9838865945
 10
529.2809098962
 20
406.2220240781
 10
535.7856560502
 20
407.2167659947
 10
542.3560567203
 20
407.9653109262
 10
548.9734835926
 20
408.4655131051
 10
555.6191816929
 20
408.7159718225
 10
562.2743122283
 20
408.7159718225
 10
568.9200103286
 20
408.4655131051
 10
575.5374372009
 20
407.9653109262
 10
582.107837871
 20
407.2167659947
 10
588.612584025
 20
406.2220240781
 10
595.033239201
 20
404.9838865945
 10
601.3516034934
 20
403.505870218
 10
607.549767569
 20
401.7921770761
 10
613.6101629588
 20
399.8476649472
 10
619.5156048986
 20
397.6778174588
 10
625.2493593845
 20
395.2887738893
 10
630.7951767001
 20
392.6873589704
 10
636.1373249444
 20
389.8809338758
 10
641.2606719884
 20
386.8774260232
 10
646.1506891999
 20
383.6853588769
 10
650.7935184988
 20
380.3137923429
 10
655.1759947094
 20
376.7722929666
 10
659.2857051644
 20
373.0708743283
 10
663.110989705
 20
369.2200268457
 10
666.6410077366
 20
365.2306879708
 10
669.8657531294
 20
361.1141527841
 10
672.7760914716
 20
356.8820739934
 10
675.3637675199
 20
352.5464917371
 10
677.621449903
 20
348.1196547696
 10
679.5427311215
 20
343.614139671
 10
681.1221722516
 20
339.0427018354
 10
682.3552880439
 20
334.4183052728
 10
683.2385990772
 20
329.7540332028
 10
683.7695870552
 20
325.063147659
 10
683.9467469606
 20
320.3589404771
  0
LINE
  5
BB
330
1F
100
AcDbEntity
  8
0
  6
Continuous
 62
     1
370
    25
100
AcDbLine
 10
433.9467469606
 20
113.5822470138
 30
0.0
 11
683.9467469606
 21
113.5822470138
 31
0.0
  0
LWPOLYLINE
  5
BC
330
1F
100
AcDbEntity
  8
0
  6
Continuous
 62
     1
370
    25
100
AcDbPolyline
 90
       61
 70
   128
 43
0.0
 10
433.9467469606
 20
201.9705856988
 10
433.9910481128
 20
204.323538656
 10
434.3452487144
 20
209.0227688501
 10
435.0526440892
 20
213.7019718835
 10
436.111230031
 20
218.3479453275
 10
437.5180114064
 20
222.9475165555
 10
439.2689947042
 20
227.4876023481
 10
441.3592103872
 20
231.9553579042
 10
443.7827501449
 20
236.3381172368
 10
446.5327296409
 20
240.6234527776
 10
449.6013630185
 20
244.7992349813
 10
452.9799405488
 20
248.8536323259
 10
456.6589031372
 20
252.7751113126
 10
460.6278050694
 20
256.5525854776
 10
464.8754034194
 20
260.1753259847
 10
469.3896580491
 20
263.6330808351
 10
474.1577688608
 20
266.916074867
 10
479.1662205014
 20
270.0149501512
 10
484.4008270654
 20
272.9209448049
 10
489.8467395458
 20
275.6258333871
 10
495.4885203394
 20
278.1219268987
 10
501.3101842257
 20
280.4021621892
 10
507.2952244434
 20
282.460101957
 10
513.4266760203
 20
284.2898453424
 10
519.6871567521
 20
285.8862663457
 10
526.0589268062
 20
287.2448350141
 10
532.5239185247
 20
288.3616770455
 10
539.0638090673
 20
289.2336035916
 10
545.6600613895
 20
289.8582006642
 10
552.2939749996
 20
290.233680124
 10
558.9467469606
 20
290.358939285
 10
565.5995189215
 20
290.233680124
 10
572.2334325317
 20
289.8582006642
 10
578.8296848539
 20
289.2336035916
 10
585.3695753965
 20
288.3616770455
 10
591.834567115
 20
287.2448350141
 10
598.2063371691
 20
285.8862663457
 10
604.4668179008
 20
284.2898453424
 10
610.5982694778
 20
282.460101957
 10
616.5833096954
 20
280.4021621892
 10
622.4049735817
 20
278.1219268987
 10
628.0467543754
 20
275.6258333871
 10
633.4926668558
 20
272.9209448049
 10
638.7272734198
 20
270.0149501512
 10
643.7357250604
 20
266.916074867
 10
648.5038358721
 20
263.6330808351
 10
653.0180905017
 20
260.1753259847
 10
657.2656888518
 20
256.5525854776
 10
661.234590784
 20
252.7751113126
 10
664.9135533723
 20
248.8536323259
 10
668.2921309027
 20
244.7992349813
 10
671.3607642803
 20
240.6234527776
 10
674.1107437763
 20
236.3381172368
 10
676.534283534
 20
231.9553579042
 10
678.624499217
 20
227.4876023481
 10
680.3754825148
 20
222.9475165555
 10
681.7822638902
 20
218.3479453275
 10
682.840849832
 20
213.7019718835
 10
683.5482452068
 20
209.0227688501
 10
683.9024458084
 20
204.323538656
 10
683.9467469606
 20
201.9705856988
  0
LINE
  5
BD
330
1F
100
AcDbEntity
  8
0
  6
Continuous
 62
     7
370
    25
100
AcDbLine
 10
279.7268522032
 20
-203.6235373841
 30
0.0
 11
161.3385048754
 21
-203.6235373841
 31
0.0
  0
LINE
  5
BE
330
1F
100
AcDbEntity
  8
0
  6
Continuous
 62
     7
370
    25
100
AcDbLine
 10
161.3385048754
 20
-453.6235373841
 30
0.0
 11
279.7268522032
 21
-453.6235373841
 31
0.0
  0
LINE
  5
BF
330
1F
100
AcDbEntity
  8
0
  6
Continuous
 62
     7
370
    25
100
AcDbLine
 10
124.7268510111
 20
-453.6235373841
 30
0.0
 11
161.3385048754
 21
-453.6235373841
 31
0.0
  0
LINE
  5
C0
330
1F
100
AcDbEntity
  8
0
  6
Continuous
 62
     7
370
    25
100
AcDbLine
 10
161.3385048754
 20
-203.6235373841
 30
0.0
 11
124.7268510111
 21
-203.6235373841
 31
0.0
  0
LWPOLYLINE
  5
C1
330
1F
100
AcDbEntity
  8
0
  6
Continuous
 62
     7
370
    25
100
AcDbPolyline
 90
      119
 70
   128
 43
0.0
 10
279.7268522032
 20
-453.6235373841
 10
284.4310742862
 20
-453.4463774787
 10
289.1219598301
 20
-452.9153895007
 10
293.7862169988
 20
-452.0320784675
 10
298.4106135614
 20
-450.7989626752
 10
302.9820513971
 20
-449.219521545
 10
307.4875664957
 20
-447.2982403265
 10
311.9144034632
 20
-445.0405579434
 10
316.2500006206
 20
-442.4528818952
 10
320.482049609
 20
-439.542543553
 10
324.5985996969
 20
-436.3177981602
 10
328.5879385717
 20
-432.7877801286
 10
332.4387711532
 20
-428.9624955879
 10
336.1402046926
 20
-424.852785133
 10
339.6817189701
 20
-420.4703089224
 10
343.0532855041
 20
-415.8274796234
 10
346.2453377493
 20
-410.937462412
 10
349.2488456018
 20
-405.814115368
 10
352.0552855976
 20
-400.4719671236
 10
354.6567005165
 20
-394.926149808
 10
357.0457142837
 20
-389.1923953222
 10
359.2155617721
 20
-383.2869533824
 10
361.1600888021
 20
-377.2265579926
 10
362.8737968452
 20
-371.0283939169
 10
364.3517983206
 20
-364.7100296246
 10
365.5899358042
 20
-358.2893744485
 10
366.5846777208
 20
-351.7846282946
 10
367.3332077511
 20
-345.2142276244
 10
367.83340993
 20
-338.5968007521
 10
368.0838686474
 20
-331.9511026518
 10
368.0838686474
 20
-325.2959721165
 10
367.83340993
 20
-318.6502740161
 10
367.3332077511
 20
-312.0328471439
 10
366.5846777208
 20
-305.4624464737
 10
365.5899358042
 20
-298.9577003198
 10
364.3517983206
 20
-292.5370451437
 10
362.8737968452
 20
-286.2186808513
 10
361.1600888021
 20
-280.0205167757
 10
359.2155617721
 20
-273.9601213859
 10
357.0457142837
 20
-268.0546794461
 10
354.6567005165
 20
-262.3209249602
 10
352.0552855976
 20
-256.7751076447
 10
349.2488456018
 20
-251.4329594003
 10
346.2453377493
 20
-246.3096123563
 10
343.0532855041
 20
-241.4195951449
 10
339.6817189701
 20
-236.7767658459
 10
336.1402046926
 20
-232.3942896353
 10
332.4387711532
 20
-228.2845791803
 10
328.5879385717
 20
-224.4592946397
 10
324.5985996969
 20
-220.9292766081
 10
320.482049609
 20
-217.7045312153
 10
316.2500006206
 20
-214.7941928731
 10
311.9144034632
 20
-212.2065168248
 10
307.4875664957
 20
-209.9488344418
 10
302.9820513971
 20
-208.0275532232
 10
298.4106135614
 20
-206.4481120931
 10
293.7862169988
 20
-205.2149963008
 10
289.1219598301
 20
-204.3316852676
 10
284.4310742862
 20
-203.8006972896
 10
279.7268522032
 20
-203.6235373841
 10
275.0226301201
 20
-203.8006972896
 10
270.3317445762
 20
-204.3316852676
 10
265.6674874075
 20
-205.2149963008
 10
261.0430908449
 20
-206.4481120931
 10
256.4716530092
 20
-208.0275532232
 10
251.9661230095
 20
-209.9488344418
 10
247.5393009432
 20
-212.2065168248
 10
243.2037112363
 20
-214.7941928731
 10
238.9716473468
 20
-217.7045312153
 10
234.85511216
 20
-220.9292766081
 10
230.8657658346
 20
-224.4592946397
 10
227.0149258025
 20
-228.2845791803
 10
223.3134997137
 20
-232.3942896353
 10
219.7719854362
 20
-236.7767658459
 10
216.4004263528
 20
-241.4195951449
 10
213.208366657
 20
-246.3096123563
 10
210.2048588045
 20
-251.4329594003
 10
207.3984188087
 20
-256.7751076447
 10
204.7970038898
 20
-262.3209249602
 10
202.4079901226
 20
-268.0546794461
 10
200.2381351836
 20
-273.9601213859
 10
198.2936081536
 20
-280.0205167757
 10
196.5799075611
 20
-286.2186808513
 10
195.1018986352
 20
-292.5370451437
 10
193.8637686022
 20
-298.9577003198
 10
192.8690266855
 20
-305.4624464737
 10
192.1204892047
 20
-312.0328471439
 10
191.6202870257
 20
-318.6502740161
 10
191.3698283084
 20
-325.2959721165
 10
191.3698283084
 20
-331.9511026518
 10
191.6202870257
 20
-338.5968007521
 10
192.1204892047
 20
-345.2142276244
 10
192.8690266855
 20
-351.7846282946
 10
193.8637686022
 20
-358.2893744485
 10
195.1018986352
 20
-364.7100296246
 10
196.5799075611
 20
-371.0283939169
 10
198.2936081536
 20
-377.2265579926
 10
200.2381351836
 20
-383.2869533824
 10
202.4079901226
 20
-389.1923953222
 10
204.7970038898
 20
-394.926149808
 10
207.3984188087
 20
-400.4719671236
 10
210.2048588045
 20
-405.814115368
 10
213.208366657
 20
-410.937462412
 10
216.4004263528
 20
-415.8274796234
 10
219.7719854362
 20
-420.4703089224
 10
223.3134997137
 20
-424.852785133
 10
227.0149258025
 20
-428.9624955879
 10
230.8657658346
 20
-432.7877801286
 10
234.85511216
 20
-436.3177981602
 10
238.9716473468
 20
-439.542543553
 10
243.2037112363
 20
-442.4528818952
 10
247.5393009432
 20
-445.0405579434
 10
251.9661230095
 20
-447.2982403265
 10
256.4716530092
 20
-449.219521545
 10
261.0430908449
 20
-450.7989626752
 10
265.6674874075
 20
-452.0320784675
 10
270.3317445762
 20
-452.9153895007
 10
275.0226301201
 20
-453.4463774787
 10
279.7268522032
 20
-453.6235373841
  0
LWPOLYLINE
  5
C2
330
1F
100
AcDbEntity
  8
0
  6
Continuous
 62
     7
370
    25
100
AcDbPolyline
 90
      112
 70
   128
 43
0.0
 10
279.7268522032
 20
-438.8235401736
 10
275.318343664
 20
-438.6470359193
 10
270.9239614256
 20
-438.118096851
 10
266.5577721842
 20
-437.2384142505
 10
262.2337681301
 20
-436.0107969867
 10
257.9658073433
 20
-434.4391938673
 10
253.7675392874
 20
-432.5286340343
 10
249.6524420626
 20
-430.2852269636
 10
245.6336733945
 20
-427.7161699163
 10
241.7241153367
 20
-424.8296957837
 10
237.9362923153
 20
-421.6350358354
 10
234.282341326
 20
-418.1424346195
 10
230.7739597805
 20
-414.3630754577
 10
227.4223906048
 20
-410.3090729939
 10
224.2383626349
 20
-405.9933986889
 10
221.232090617
 20
-401.429888271
 10
218.4131857999
 20
-396.6331597792
 10
215.7906931885
 20
-391.6185763107
 10
213.3730021365
 20
-386.4022013174
 10
211.1678686984
 20
-381.0007390009
 10
209.1823485739
 20
-375.4315007852
 10
207.4227971084
 20
-369.712319635
 10
205.8948618419
 20
-363.8615202533
 10
204.6034378059
 20
-357.8978445755
 10
203.552652622
 20
-351.840392165
 10
202.7458739527
 20
-345.7085699217
 10
202.1856871493
 20
-339.5220194386
 10
201.8738952525
 20
-333.3005578631
 10
201.8114891894
 20
-327.0641142178
 10
201.9986626752
 20
-320.8326654883
 10
202.4348271139
 20
-314.6261735262
 10
203.1185817964
 20
-308.4645200895
 10
204.0477362521
 20
-302.3674399035
 10
205.2193102486
 20
-296.3544693218
 10
206.629556144
 20
-290.4448625074
 10
208.2739588864
 20
-284.6575569736
 10
210.1472434647
 20
-279.0110860394
 10
212.2434121616
 20
-273.5235359894
 10
214.5557445534
 20
-268.2124901937
 10
217.076849664
 20
-263.0949583279
 10
219.798636163
 20
-258.1873353945
 10
222.7123943217
 20
-253.5053458439
 10
225.808781112
 20
-249.0639727937
 10
229.0778872617
 20
-244.8774617539
 10
232.5092372544
 20
-240.9592088686
 10
236.0918414839
 20
-237.3217758165
 10
239.8142186053
 20
-233.9768078552
 10
243.6644551404
 20
-230.9350189196
 10
247.6301980264
 20
-228.206154369
 10
251.6987663753
 20
-225.7989611851
 10
255.8571142204
 20
-223.7211507188
 10
260.0919199236
 20
-221.979368888
 10
264.3896234281
 20
-220.5791961776
 10
268.7364709623
 20
-219.5251252876
 10
273.1185001381
 20
-218.8205313312
 10
277.521718765
 20
-218.4676718341
 10
281.9319856413
 20
-218.4676718341
 10
286.3352042682
 20
-218.8205313312
 10
290.717233444
 20
-219.5251252876
 10
295.0640809782
 20
-220.5791961776
 10
299.3617844827
 20
-221.979368888
 10
303.5965901859
 20
-223.7211507188
 10
307.754938031
 20
-225.7989611851
 10
311.8235063799
 20
-228.206154369
 10
315.7892567165
 20
-230.9350189196
 10
319.6394783504
 20
-233.9768078552
 10
323.3618629225
 20
-237.3217758165
 10
326.9444597013
 20
-240.9592088686
 10
330.3758096941
 20
-244.8774617539
 10
333.6449158438
 20
-249.0639727937
 10
336.741302634
 20
-253.5053458439
 10
339.6550607927
 20
-258.1873353945
 10
342.3768472917
 20
-263.0949583279
 10
344.897959853
 20
-268.2124901937
 10
347.2102922447
 20
-273.5235359894
 10
349.3064683922
 20
-279.0110860394
 10
351.1797529705
 20
-284.6575569736
 10
352.8241408117
 20
-290.4448625074
 10
354.2343867071
 20
-296.3544693218
 10
355.4059607036
 20
-302.3674399035
 10
356.3351226099
 20
-308.4645200895
 10
357.0188772924
 20
-314.6261735262
 10
357.4550342806
 20
-320.8326654883
 10
357.6422226675
 20
-327.0641142178
 10
357.5798017032
 20
-333.3005578631
 10
357.2680098064
 20
-339.5220194386
 10
356.7078304537
 20
-345.7085699217
 10
355.9010517843
 20
-351.840392165
 10
354.8502666004
 20
-357.8978445755
 10
353.5588425644
 20
-363.8615202533
 10
352.0309072979
 20
-369.712319635
 10
350.2713632829
 20
-375.4315007852
 10
348.2858282573
 20
-381.0007390009
 10
346.0806948192
 20
-386.4022013174
 10
343.6630112179
 20
-391.6185763107
 10
341.0405111559
 20
-396.6331597792
 10
338.2216137893
 20
-401.429888271
 10
335.2153343208
 20
-405.9933986889
 10
332.0313138016
 20
-410.3090729939
 10
328.6797446258
 20
-414.3630754577
 10
325.1713556297
 20
-418.1424346195
 10
321.517412091
 20
-421.6350358354
 10
317.7295816191
 20
-424.8296957837
 10
313.8200235613
 20
-427.7161699163
 10
309.8012697943
 20
-430.2852269636
 10
305.686165119
 20
-432.5286340343
 10
301.487897063
 20
-434.4391938673
 10
297.2199362762
 20
-436.0107969867
 10
292.8959322222
 20
-437.2384142505
 10
288.5297429807
 20
-438.118096851
 10
284.1353607424
 20
-438.6470359193
 10
279.7268522032
 20
-438.8235401736
  0
ARC
  5
C3
330
1F
100
AcDbEntity
  8
0
  6
Continuous
 62
     7
370
    25
100
AcDbCircle
 10
124.7268510111
 20
-328.6235373841
 30
0.0
 40
125.0
100
AcDbArc
 50
90.0
 51
270.0
  0
ARC
  5
C4
330
1F
100
AcDbEntity
  8
0
  6
Continuous
 62
     7
370
    25
100
AcDbCircle
 10
124.7268510111
 20
-328.6235373841
 30
0.0
 40
110.2
100
AcDbArc
 50
325.4799865677
 51
34.5200134323
  0
LWPOLYLINE
  5
C5
330
1F
100
AcDbEntity
  8
0
  6
Continuous
 62
     1
370
    25
100
AcDbPolyline
 90
       61
 70
   128
 43
0.0
 10
161.3385048754
 20
-203.6235373841
 10
158.9855593689
 20
-203.6678385364
 10
154.2863422133
 20
-204.0220391379
 10
149.6071131028
 20
-204.7294345127
 10
144.9611396588
 20
-205.7880204545
 10
140.3615889199
 20
-207.1948018299
 10
135.8214994021
 20
-208.9457851277
 10
131.3537405863
 20
-211.0360008107
 10
126.9709770627
 20
-213.4595405685
 10
122.6856319759
 20
-216.2095200645
 10
118.509852799
 20
-219.278153442
 10
114.4554759435
 20
-222.6567309724
 10
110.5339941628
 20
-226.3356935607
 10
106.7565237232
 20
-230.3045954929
 10
103.1337701775
 20
-234.552193843
 10
99.6760060139
 20
-239.0664484726
 10
96.3930306084
 20
-243.8345592843
 10
93.2941478737
 20
-248.8430109249
 10
90.3881494947
 20
-254.077617489
 10
87.6832646377
 20
-259.5235299693
 10
85.1871599503
 20
-265.165310763
 10
82.9069209345
 20
-270.9869746493
 10
80.8489997931
 20
-276.9720148669
 10
79.0192377813
 20
-283.1034664439
 10
77.422816778
 20
-289.3639471756
 10
76.0642667361
 20
-295.7357172297
 10
74.9474321552
 20
-302.2007089482
 10
74.0754832573
 20
-308.7405994909
 10
73.4508936353
 20
-315.3368518131
 10
73.0754290767
 20
-321.9707654232
 10
72.9501550145
 20
-328.6235373841
 10
73.0754290767
 20
-335.2763093451
 10
73.4508936353
 20
-341.9102229552
 10
74.0754832573
 20
-348.5064752774
 10
74.9474321552
 20
-355.04636582
 10
76.0642667361
 20
-361.5113575386
 10
77.422816778
 20
-367.8831275927
 10
79.0192377813
 20
-374.1436083244
 10
80.8489997931
 20
-380.2750599013
 10
82.9069209345
 20
-386.260100119
 10
85.1871599503
 20
-392.0817640053
 10
87.6832646377
 20
-397.723544799
 10
90.3881494947
 20
-403.1694572793
 10
93.2941478737
 20
-408.4040638434
 10
96.3930306084
 20
-413.412515484
 10
99.6760060139
 20
-418.1806262957
 10
103.1337701775
 20
-422.6948809253
 10
106.7565237232
 20
-426.9424792753
 10
110.5339941628
 20
-430.9113812076
 10
114.4554759435
 20
-434.5903437959
 10
118.509852799
 20
-437.9689213263
 10
122.6856319759
 20
-441.0375547038
 10
126.9709770627
 20
-443.7875341998
 10
131.3537405863
 20
-446.2110739575
 10
135.8214994021
 20
-448.3012896405
 10
140.3615889199
 20
-450.0522729384
 10
144.9611396588
 20
-451.4590543138
 10
149.6071131028
 20
-452.5176402556
 10
154.2863422133
 20
-453.2250356303
 10
158.9855593689
 20
-453.5792362319
 10
161.3385048754
 20
-453.6235373841
  0
LWPOLYLINE
  5
C6
330
1F
100
AcDbEntity
  8
0
  6
Continuous
 62
     1
370
    25
100
AcDbPolyline
 90
       27
 70
   128
 43
0.0
 10
220.532674814
 20
-256.9566708432
 10
221.2667209156
 20
-258.1873353945
 10
223.9885074146
 20
-263.0949583279
 10
226.5096050747
 20
-268.2124901937
 10
228.821944917
 20
-273.5235359894
 10
230.9181136139
 20
-279.0110860394
 10
232.7913981922
 20
-284.6575569736
 10
234.4358009346
 20
-290.4448625074
 10
235.84604683
 20
-296.3544693218
 10
237.0176208265
 20
-302.3674399035
 10
237.9467752822
 20
-308.4645200895
 10
238.6305299647
 20
-314.6261735262
 10
239.0666944034
 20
-320.8326654883
 10
239.2538678892
 20
-327.0641142178
 10
239.1914618261
 20
-333.3005578631
 10
238.8796624787
 20
-339.5220194386
 10
238.319483126
 20
-345.7085699217
 10
237.5127044566
 20
-351.840392165
 10
236.4619192727
 20
-357.8978445755
 10
235.1704877861
 20
-363.8615202533
 10
233.6425525196
 20
-369.712319635
 10
231.8830085047
 20
-375.4315007852
 10
229.8974883802
 20
-381.0007390009
 10
227.6923474915
 20
-386.4022013174
 10
225.2746638901
 20
-391.6185763107
 10
222.6521712787
 20
-396.6331597792
 10
220.532674814
 20
-400.290403925
  0
INSERT
  5
D2
330
1F
100
AcDbEntity
  8
FORMAT
 62
     7
100
AcDbBlockReference
  2
SW_CENTERMARKSYMBOL_1
 10
124.7268510111
 20
-328.6235373841
 30
0.0
  0
LINE
  5
D3
330
1F
100
AcDbEntity
  8
0
  6
Continuous
 62
     7
370
    25
100
AcDbLine
 10
428.1334182585
 20
-376.6886062579
 30
0.0
 11
428.1334182585
 21
-508.3340164563
 31
0.0
  0
LINE
  5
D4
330
1F
100
AcDbEntity
  8
0
  6
Continuous
 62
     7
370
    25
100
AcDbLine
 10
678.1334139799
 20
-508.3340164563
 30
0.0
 11
678.1334139799
 21
-376.6886062579
 31
0.0
  0
LINE
  5
D5
330
1F
100
AcDbEntity
  8
0
  6
Continuous
 62
     7
370
    25
100
AcDbLine
 10
554.4817939018
 20
-82.0753746126
 30
0.0
 11
470.7685906929
 21
-227.0709014929
 31
0.0
  0
LINE
  5
D6
330
1F
100
AcDbEntity
  8
0
  6
Continuous
 62
     7
370
    25
100
AcDbLine
 10
687.2749389814
 20
-352.0708881585
 30
0.0
 11
770.9881369219
 21
-207.0753643196
 31
0.0
  0
SPLINE
  5
D7
330
1F
100
AcDbEntity
  8
0
  6
Continuous
 62
     7
370
    25
100
AcDbSpline
210
0.0
220
0.0
230
1.0
 70
     8
 71
     3
 72
    25
 73
    21
 74
     0
 42
0.000000001
 43
0.00000001
 40
0.0
 40
0.0
 40
0.0
 40
0.0
 40
0.0324097309648898
 40
0.088127607245572
 40
0.1438987813790861
 40
0.1997504373187433
 40
0.2557117858566572
 40
0.3118105124769744
 40
0.3680718581425557
 40
0.4245183501471038
 40
0.4811674202568157
 40
0.5380307390965043
 40
0.595112407374109
 40
0.6524068348949031
 40
0.7098971383269576
 40
0.7675535782352533
 40
0.8253318082014423
 40
0.8831607931100707
 40
0.9409546388901866
 40
1.0
 40
1.0
 40
1.0
 40
1.0
 10
470.7685906929463
 20
-227.0709014929201
 30
0.0
 10
469.9063088578569
 20
-228.5803281032986
 30
0.0
 10
467.561616920115
 20
-232.684717480352
 30
0.0
 10
463.9017745274045
 20
-239.4793484341735
 30
0.0
 10
459.8477483943823
 20
-247.4769592628632
 30
0.0
 10
456.0096722301309
 20
-255.5811545965157
 30
0.0
 10
452.3883632202591
 20
-263.7846709213478
 30
0.0
 10
448.9897981885334
 20
-272.0831798997075
 30
0.0
 10
445.8191644401101
 20
-280.4714950595987
 30
0.0
 10
442.8826504708691
 20
-288.944354503789
 30
0.0
 10
440.1868670273413
 20
-297.4959875565602
 30
0.0
 10
437.7390945876372
 20
-306.1199173186398
 30
0.0
 10
435.5471573835063
 20
-314.8087217347909
 30
0.0
 10
433.6194074243025
 20
-323.5536889753791
 30
0.0
 10
431.9643937057616
 20
-332.3445907605383
 30
0.0
 10
430.5915378594372
 20
-341.1692770101711
 30
0.0
 10
429.5075319074939
 20
-350.0131730509206
 30
0.0
 10
428.7285476851897
 20
-358.8580061240556
 30
0.0
 10
428.2285877802818
 20
-367.7565991802779
 30
0.0
 10
428.1653671602334
 20
-373.6900851861997
 30
0.0
 10
428.1334182584931
 20
-376.6886062578956
 30
0.0
  0
SPLINE
  5
D8
330
1F
100
AcDbEntity
  8
0
  6
Continuous
 62
     7
370
    25
100
AcDbSpline
210
0.0
220
0.0
230
1.0
 70
     8
 71
     3
 72
    23
 73
    19
 74
     0
 42
0.000000001
 43
0.00000001
 40
0.0
 40
0.0
 40
0.0
 40
0.0
 40
0.0120988270080066
 40
0.0842801980803348
 40
0.1542834897976575
 40
0.222595261002254
 40
0.2896650628231191
 40
0.3558976445848941
 40
0.4216458506601067
 40
0.4872084321741494
 40
0.5528231600567761
 40
0.6186471475181348
 40
0.6847752437367788
 40
0.7512878098098394
 40
0.8182114629638415
 40
0.8855269318340211
 40
0.9531789434790908
 40
0.9999999999999999
 40
0.9999999999999999
 40
0.9999999999999999
 40
0.9999999999999999
 10
678.1323708454247
 20
-376.7901225473332
 30
0.0
 10
678.1322743887207
 20
-376.7968188081058
 30
0.0
 10
678.1316024731611
 20
-376.8434648328759
 30
0.0
 10
678.1387616286762
 20
-376.6461359290657
 30
0.0
 10
678.1820240463883
 20
-376.1792069793572
 30
0.0
 10
678.2798566187369
 20
-375.4071849701805
 30
0.0
 10
678.4487727767475
 20
-374.3771508198254
 30
0.0
 10
678.704256560045
 20
-373.0954342152862
 30
0.0
 10
679.0596598000744
 20
-371.5806641214231
 30
0.0
 10
679.5263491944436
 20
-369.8504767973138
 30
0.0
 10
680.1134144435543
 20
-367.925826174812
 30
0.0
 10
680.8270624536108
 20
-365.8304062574915
 30
0.0
 10
681.6704722916147
 20
-363.5906104962291
 30
0.0
 10
682.6439216830394
 20
-361.235229254502
 30
0.0
 10
683.7431011792895
 20
-358.7941747385242
 30
0.0
 10
684.964729424094
 20
-356.3018424442106
 30
0.0
 10
686.1469946937699
 20
-354.045988788739
 30
0.0
 10
686.9534863755646
 20
-352.6475733276487
 30
0.0
 10
687.2833525460267
 20
-352.0756022047249
 30
0.0
  0
LWPOLYLINE
  5
D9
330
1F
100
AcDbEntity
  8
0
  6
Continuous
 62
     7
370
    25
100
AcDbPolyline
 90
      119
 70
   128
 43
0.0
 10
464.7450684709
 20
-457.3085094674
 10
469.5745596086
 20
-454.6651383618
 10
474.6409101081
 20
-452.1738993658
 10
479.9297600771
 20
-449.8418535605
 10
485.4261055667
 20
-447.6756065836
 10
491.1143785848
 20
-445.6813050181
 10
496.9784513764
 20
-443.8645974246
 10
503.0017022781
 20
-442.2306389037
 10
509.167056548
 20
-440.7840553596
 10
515.4570390488
 20
-439.5289495834
 10
521.8538163955
 20
-438.4688769214
 10
528.3392575405
 20
-437.6068467968
 10
534.8949838238
 20
-436.9452998987
 10
541.5024137535
 20
-436.4861127445
 10
548.1428025187
 20
-436.2305870351
 10
554.7973420883
 20
-436.1794466135
 10
561.4471664792
 20
-436.3328344234
 10
568.0734255135
 20
-436.6903185922
 10
574.6573322333
 20
-437.2508833066
 10
581.1802366583
 20
-438.0129409781
 10
587.6236284194
 20
-438.9743337637
 10
593.9692579312
 20
-440.1323305247
 10
600.1991337578
 20
-441.4836557193
 10
606.2955990037
 20
-443.0244726754
 10
612.2413629244
 20
-444.7504200867
 10
618.0195839027
 20
-446.6565990872
 10
623.6138786683
 20
-448.7376089867
 10
629.0083868352
 20
-450.9875541142
 10
634.187818317
 20
-453.4000529421
 10
639.1374941568
 20
-455.9682677388
 10
643.843382088
 20
-458.684919016
 10
648.2921426332
 20
-461.5423060571
 10
652.4711659821
 20
-464.5323282071
 10
656.3686075531
 20
-467.6465114846
 10
659.9734130183
 20
-470.8760291106
 10
663.2753696693
 20
-474.211725079
 10
666.2651222229
 20
-477.6441415294
 10
668.9341846745
 20
-481.1635560031
 10
671.2750022015
 20
-484.7599867656
 10
673.2809287729
 20
-488.4232407082
 10
674.946290369
 20
-492.142931596
 10
676.2663560061
 20
-495.9085241677
 10
677.2373877857
 20
-499.7093326145
 10
677.8566356258
 20
-503.5345905321
 10
678.1223398955
 20
-507.3734524405
 10
678.0337524883
 20
-511.2150363636
 10
677.5911210168
 20
-515.0484512013
 10
676.79569935
 20
-518.8628393081
 10
675.649742344
 20
-522.6473795353
 10
674.1565005747
 20
-526.3913450158
 10
672.3202018978
 20
-530.0841259749
 10
670.1460593515
 20
-533.7152555819
 10
667.6402316442
 20
-537.2744388425
 10
664.8098257881
 20
-540.7515875749
 10
661.6628549529
 20
-544.1368447403
 10
658.208249002
 20
-547.4206148566
 10
654.4557925898
 20
-550.5935875691
 10
650.4161330639
 20
-553.6467756673
 10
646.1007129643
 20
-556.5715175558
 10
641.5217637675
 20
-559.3595234452
 10
636.6922726298
 20
-562.0028945508
 10
631.6259221303
 20
-564.4941335467
 10
626.3370721613
 20
-566.8261793521
 10
620.8407266717
 20
-568.992426329
 10
615.1524536536
 20
-570.9867278945
 10
609.288380862
 20
-572.803435488
 10
603.2651299603
 20
-574.4373940089
 10
597.0997756905
 20
-575.8839775529
 10
590.8097931896
 20
-577.1390833292
 10
584.4130158429
 20
-578.1991559911
 10
577.9275746979
 20
-579.0611861157
 10
571.3718484146
 20
-579.7227330139
 10
564.764418485
 20
-580.1819201681
 10
558.1240297197
 20
-580.4374458775
 10
551.4694901501
 20
-580.4885862991
 10
544.8196657592
 20
-580.3351984892
 10
538.193406725
 20
-579.9777143203
 10
531.6095000051
 20
-579.417149606
 10
525.0865955801
 20
-578.6550919345
 10
518.643203819
 20
-577.6936991489
 10
512.2975743072
 20
-576.5357023879
 10
506.0676984807
 20
-575.1843771933
 10
499.9712332347
 20
-573.6435602372
 10
494.025469314
 20
-571.9176128259
 10
488.2472483357
 20
-570.0114338254
 10
482.6529535702
 20
-567.9304239259
 10
477.2584454033
 20
-565.6804787983
 10
472.0790139214
 20
-563.2679799705
 10
467.1293380817
 20
-560.6997651738
 10
462.4234501504
 20
-557.9831138966
 10
457.9746896052
 20
-555.1257268555
 10
453.7956662563
 20
-552.1357047055
 10
449.8982246853
 20
-549.021521428
 10
446.2934192201
 20
-545.792003802
 10
442.9914625691
 20
-542.4563078335
 10
440.0017100155
 20
-539.0238913832
 10
437.3326475639
 20
-535.5044769095
 10
434.9918300369
 20
-531.908046147
 10
432.9859034656
 20
-528.2447922044
 10
431.3205418695
 20
-524.5251013166
 10
430.0004762323
 20
-520.7595087449
 10
429.0294444528
 20
-516.958700298
 10
428.4101966127
 20
-513.1334423805
 10
428.1444923429
 20
-509.2945804721
 10
428.2330797502
 20
-505.4529965489
 10
428.6757112216
 20
-501.6195817113
 10
429.4711328884
 20
-497.8051936044
 10
430.6170898944
 20
-494.0206533773
 10
432.1103316637
 20
-490.2766878968
 10
433.9466303407
 20
-486.5839069377
 10
436.1207728869
 20
-482.9527773307
 10
438.6266005942
 20
-479.3935940701
 10
441.4570064503
 20
-475.9164453377
 10
444.6039772855
 20
-472.5311881723
 10
448.0585832364
 20
-469.247418056
 10
451.8110396486
 20
-466.0744453434
 10
455.8506991745
 20
-463.0212572453
 10
460.1661192741
 20
-460.0965153568
 10
464.7450684709
 20
-457.3085094674
  0
LWPOLYLINE
  5
DA
330
1F
100
AcDbEntity
  8
0
  6
Continuous
 62
     7
370
    25
100
AcDbPolyline
 90
      112
 70
   128
 43
0.0
 10
475.21024686
 20
-463.3499283562
 10
470.926547203
 20
-465.9669550354
 10
466.9061784213
 20
-468.7196946772
 10
463.162020987
 20
-471.599330767
 10
459.7060755566
 20
-474.59664229
 10
456.5493990924
 20
-477.702022359
 10
453.7021094723
 20
-480.9055242153
 10
451.1733328059
 20
-484.196891642
 10
448.9711652396
 20
-487.5655749312
 10
447.1026531995
 20
-491.0007848682
 10
445.5737973432
 20
-494.4915208639
 10
444.3894840709
 20
-498.0265983272
 10
443.5535171358
 20
-501.5946912438
 10
443.0685596917
 20
-505.184371714
 10
442.9361764406
 20
-508.7841464487
 10
443.1567888507
 20
-512.3824765388
 10
443.7296856942
 20
-515.9678382817
 10
444.6530388514
 20
-519.5287444712
 10
445.9238822378
 20
-523.053793059
 10
447.5381592193
 20
-526.5316884446
 10
449.4906830994
 20
-529.951291657
 10
451.7752082419
 20
-533.3016492483
 10
454.3844142661
 20
-536.5720267482
 10
457.3099376567
 20
-539.751951243
 10
460.5424191792
 20
-542.8312326653
 10
464.0714972943
 20
-545.8000086542
 10
467.8858647928
 20
-548.6487711666
 10
471.9733053448
 20
-551.3683936597
 10
476.320727991
 20
-553.9501631677
 10
480.9142070668
 20
-556.3858094327
 10
485.7390215507
 20
-558.6675337019
 10
490.7797220709
 20
-560.7880230792
 10
496.0201624331
 20
-562.7404869745
 10
501.4435517279
 20
-564.5186689358
 10
507.0325241368
 20
-566.1168747819
 10
512.7691632977
 20
-567.5299866691
 10
518.6351063557
 20
-568.7534744957
 10
524.6115584505
 20
-569.7834225144
 10
530.6793743762
 20
-570.6165278112
 10
536.8191138988
 20
-571.2501261571
 10
543.0111181478
 20
-571.6821813636
 10
549.2355385917
 20
-571.9113141751
 10
555.4724555761
 20
-571.9367916245
 10
561.7018704215
 20
-571.7585285538
 10
567.9038476685
 20
-571.3770967383
 10
574.0585019071
 20
-570.7937203241
 10
580.1461294858
 20
-570.0102667046
 10
586.1472295844
 20
-569.0292465201
 10
592.0425779718
 20
-567.8538014928
 10
597.8132849573
 20
-566.4876953021
 10
603.4408665135
 20
-564.9353029405
 10
608.9073022287
 20
-563.2016015889
 10
614.1950800871
 20
-561.2921447657
 10
619.2872557388
 20
-559.2130463592
 10
624.1675203288
 20
-556.9709658012
 10
628.8202390229
 20
-554.5730858271
 10
633.2305122514
 20
-552.0270892854
 10
637.384212259
 20
-549.3411319555
 10
641.2680305199
 20
-546.523815176
 10
644.8695248232
 20
-543.5841647445
 10
648.177159445
 20
-540.5315955625
 10
651.1803436723
 20
-537.3758893953
 10
653.8694574871
 20
-534.1271557141
 10
656.2358792247
 20
-530.7957974813
 10
658.2720303547
 20
-527.3924852988
 10
659.9713912867
 20
-523.9281239529
 10
661.3285198087
 20
-520.413811356
 10
662.3390668929
 20
-516.8608050919
 10
662.9997977687
 20
-513.2804798366
 10
663.3085919227
 20
-509.6843151928
 10
663.2644589039
 20
-506.0838196564
 10
662.8675462264
 20
-502.4905382193
 10
662.119123564
 20
-498.9159702532
 10
661.0215801161
 20
-495.3715740714
 10
659.5784430471
 20
-491.8686984983
 10
657.794327437
 20
-488.4185661421
 10
655.6749547204
 20
-485.0322292949
 10
653.2271079057
 20
-481.7205379986
 10
650.4586342093
 20
-478.4940929038
 10
647.3783989575
 20
-475.3632369061
 10
643.9962658297
 20
-472.3379950791
 10
640.323072493
 20
-469.4280606085
 10
636.3705818694
 20
-466.6427544938
 10
632.1514616388
 20
-463.9909954676
 10
627.6792211007
 20
-461.4812817947
 10
622.9681863149
 20
-459.1216525902
 10
618.0334502159
 20
-456.9196651039
 10
612.8908221524
 20
-454.8823716731
 10
607.5567723226
 20
-453.0162998106
 10
602.0483846881
 20
-451.3274311058
 10
596.3833108759
 20
-449.8211685297
 10
590.5796924701
 20
-448.502340237
 10
584.6561241335
 20
-447.3751721935
 10
578.6315798504
 20
-446.4432699281
 10
572.5253549748
 20
-445.7096276572
 10
566.3570161813
 20
-445.1765872256
 10
560.1463145366
 20
-444.8458609176
 10
553.9131486217
 20
-444.7185040841
 10
547.6774802377
 20
-444.7949273083
 10
541.4592975274
 20
-445.0748872816
 10
535.2785096085
 20
-445.557480721
 10
529.1549123288
 20
-446.2411702203
 10
523.1081250464
 20
-447.1237599197
 10
517.1575221406
 20
-448.2024289603
 10
511.3221592554
 20
-449.4737132363
 10
505.6207258838
 20
-450.9335449324
 10
500.0714966361
 20
-452.5772502429
 10
494.6922377258
 20
-454.3995607767
 10
489.5001793115
 20
-456.3946356073
 10
484.511962813
 20
-458.5560916862
 10
479.7435612273
 20
-460.8770011819
 10
475.21024686
 20
-463.3499283562
  0
LWPOLYLINE
  5
DB
330
1F
100
AcDbEntity
  8
0
  6
Continuous
 62
     7
370
    25
100
AcDbPolyline
 90
      119
 70
   128
 43
0.0
 10
574.3466203977
 20
-93.5498609565
 10
577.7982787034
 20
-95.5430729658
 10
581.4907008812
 20
-97.6752853977
 10
585.4134239759
 20
-99.9404563528
 10
589.5553106829
 20
-102.3321303113
 10
593.9046389099
 20
-104.8435506827
 10
598.449070167
 20
-107.467592888
 10
603.1757391288
 20
-110.1968282403
 10
608.0712325606
 20
-113.0234996096
 10
613.1216630758
 20
-115.9396370148
 10
618.312742893
 20
-118.9369177048
 10
623.6297311517
 20
-122.0068790773
 10
629.0575656219
 20
-125.1408243934
 10
634.5808785091
 20
-128.3298440662
 10
640.1839859173
 20
-131.5649069142
 10
645.8510195579
 20
-134.836863206
 10
651.5659056767
 20
-138.1364324913
 10
657.3124598838
 20
-141.4542461876
 10
663.0743818855
 20
-144.7808932045
 10
668.8353450464
 20
-148.106971655
 10
674.5790095601
 20
-151.4230599582
 10
680.2891014749
 20
-154.7197137944
 10
685.9494364008
 20
-157.9876014648
 10
691.5439748278
 20
-161.2174749953
 10
697.0568379308
 20
-164.4001914214
 10
702.4724221561
 20
-167.5267059493
 10
707.7753610263
 20
-170.5881593993
 10
712.9506265556
 20
-173.5758880936
 10
717.9835503236
 20
-176.4813995176
 10
722.8598695736
 20
-179.2964719367
 10
727.5657575048
 20
-182.0131232138
 10
732.0878746398
 20
-184.6236526326
 10
736.4134057025
 20
-187.1206621864
 10
740.5300899112
 20
-189.4970618973
 10
744.4262512717
 20
-191.7461359727
 10
748.0908446757
 20
-193.8614964137
 10
751.513498047
 20
-195.8371438494
 10
754.6844873175
 20
-197.6675017486
 10
757.5948457452
 20
-199.3473700353
 10
760.2363099136
 20
-200.8719669027
 10
762.601398757
 20
-202.2369622729
 10
764.6834056583
 20
-203.4385340655
 10
766.476422156
 20
-204.4732602099
 10
767.9753748232
 20
-205.3381886
 10
769.1760173651
 20
-206.0308690331
 10
770.0749358869
 20
-206.5493562428
 10
770.6695857725
 20
-206.892182523
 10
770.9582811481
 20
-207.0583638028
 10
770.9402159552
 20
-207.0474118158
 10
770.6154270722
 20
-206.8593857991
 10
769.9848259248
 20
-206.4948134064
 10
769.0502353641
 20
-205.9546998319
 10
767.8142684948
 20
-205.2406281791
 10
766.2804445787
 20
-204.3545830383
 10
764.453115278
 20
-203.2990904049
 10
762.3374541182
 20
-202.0771385844
 10
759.9394564886
 20
-200.6921903615
 10
757.2659238369
 20
-199.1481616991
 10
754.3244320591
 20
-197.4494521598
 10
751.1233156944
 20
-195.6008749343
 10
747.6716573887
 20
-193.607662925
 10
743.979235211
 20
-191.4754504931
 10
740.0565121162
 20
-189.210279538
 10
735.9146254092
 20
-186.8186055795
 10
731.5652971822
 20
-184.3071852081
 10
727.0208553884
 20
-181.6831490855
 10
722.2941969634
 20
-178.9539076506
 10
717.3987087999
 20
-176.1272332398
 10
712.3482677479
 20
-173.2111019174
 10
707.1571984675
 20
-170.2138151447
 10
701.8402049405
 20
-167.1438568135
 10
696.4123652018
 20
-164.0099145388
 10
690.889057583
 20
-160.8208918246
 10
685.2859501748
 20
-157.5858289766
 10
679.6189218025
 20
-154.3138696435
 10
673.9040304154
 20
-151.0143033995
 10
668.1574762084
 20
-147.6964897033
 10
662.3955542066
 20
-144.3698426864
 10
656.6345910457
 20
-141.0437642359
 10
650.890926532
 20
-137.7276759326
 10
645.1808293489
 20
-134.4310251378
 10
639.520494423
 20
-131.1631374674
 10
633.9259612643
 20
-127.9332608955
 10
628.413092893
 20
-124.7505475108
 10
622.997513936
 20
-121.6240299415
 10
617.6945750659
 20
-118.5625764915
 10
612.5193042682
 20
-115.5748508386
 10
607.4863805001
 20
-112.6693394146
 10
602.6100612502
 20
-109.8542669955
 10
597.904173319
 20
-107.1376157184
 10
593.382056184
 20
-104.5270862996
 10
589.0565251213
 20
-102.0300767458
 10
584.939846181
 20
-99.6536739936
 10
581.0436848204
 20
-97.4045999181
 10
577.3790861481
 20
-95.2892425185
 10
573.9564380451
 20
-93.3135920415
 10
570.7854435062
 20
-91.4832371836
 10
567.8750850786
 20
-89.8033688969
 10
565.2336261785
 20
-88.2787689882
 10
562.8685373351
 20
-86.913773618
 10
560.7865304339
 20
-85.7122018253
 10
558.9935139362
 20
-84.677475681
 10
557.4945612689
 20
-83.8125472908
 10
556.2939239953
 20
-83.1198638164
 10
555.3950002052
 20
-82.6013796481
 10
554.8003503196
 20
-82.2585533679
 10
554.5116496757
 20
-82.0923751294
 10
554.529720137
 20
-82.1033240751
 10
554.8545142883
 20
-82.2913470504
 10
555.485104899
 20
-82.6559255258
 10
556.4197059964
 20
-83.1960330176
 10
557.6556675973
 20
-83.9101077117
 10
559.1894809767
 20
-84.7961589352
 10
561.0168208141
 20
-85.8516454859
 10
563.1324819739
 20
-87.0735973065
 10
565.5304796035
 20
-88.4585455294
 10
568.2040122552
 20
-90.0025741917
 10
571.1455040331
 20
-91.7012837311
 10
574.3466203977
 20
-93.5498609565
  0
LWPOLYLINE
  5
DC
330
1F
100
AcDbEntity
  8
0
  6
Continuous
 62
     7
370
    25
100
AcDbPolyline
 90
      112
 70
   128
 43
0.0
 10
584.8117987868
 20
-99.5912798453
 10
581.819319859
 20
-97.8631735222
 10
579.0860387811
 20
-96.2847008075
 10
576.6207062927
 20
-94.8609152621
 10
574.4312301961
 20
-93.5963959875
 10
572.524617405
 20
-92.495141158
 10
570.9069634072
 20
-91.5607444396
 10
569.583478607
 20
-90.79616077
 10
568.5583776891
 20
-90.203861483
 10
567.8349481079
 20
-89.7857156766
 10
567.4155184766
 20
-89.5430875437
 10
567.3014269576
 20
-89.4767207811
 10
567.4930370677
 20
-89.5868876318
 10
567.989732409
 20
-89.8731546608
 10
568.7899272065
 20
-90.3346808476
 10
569.8910610391
 20
-90.9699468623
 10
571.2895935714
 20
-91.7769466905
 10
572.9810572376
 20
-92.7530659592
 10
574.960025631
 20
-93.8951610164
 10
577.2201714558
 20
-95.1996228072
 10
579.75424282
 20
-96.6622475887
 10
582.554123821
 20
-98.2783692444
 10
585.610850351
 20
-100.0427771523
 10
588.9146311703
 20
-101.9498378506
 10
592.4548795174
 20
-103.9934281124
 10
596.2202539386
 20
-106.1670254377
 10
600.19869385
 20
-108.4636494912
 10
604.3774613544
 20
-110.8759592484
 10
608.7431651961
 20
-113.3962181495
 10
613.2818164904
 20
-116.0163627765
 10
617.9788838765
 20
-118.7279738567
 10
622.8193183776
 20
-121.5223879496
 10
627.7876165389
 20
-124.3906426433
 10
632.8678567299
 20
-127.3235705153
 10
638.0437742183
 20
-130.3117512198
 10
643.2987855362
 20
-133.3456228929
 10
648.616055652
 20
-136.4154661775
 10
653.9785546045
 20
-139.5114308395
 10
659.3690970164
 20
-142.6236559168
 10
664.7704290215
 20
-145.7421069794
 10
670.1652361676
 20
-148.8568240351
 10
675.536240881
 20
-151.9578135462
 10
680.8662419792
 20
-155.0351807437
 10
686.1381594517
 20
-158.0790277304
 10
691.3351134858
 20
-161.0796207749
 10
696.440450808
 20
-164.0273386051
 10
701.437818441
 20
-166.9127454084
 10
706.3112163875
 20
-169.7266212531
 10
711.0450187033
 20
-172.4599073321
 10
715.6240735965
 20
-175.1038915215
 10
720.033703427
 20
-177.6500684506
 10
724.2597890006
 20
-180.090285514
 10
728.2887959106
 20
-182.4167520006
 10
732.107821953
 20
-184.6220056339
 10
735.7046076631
 20
-186.6989794903
 10
739.0676627565
 20
-188.6410020108
 10
742.1861923715
 20
-190.44187608
 10
745.0502287785
 20
-192.0958212447
 10
747.6505681594
 20
-193.5975588795
 10
749.9789128535
 20
-194.9422604878
 10
752.0277765267
 20
-196.1256146157
 10
753.7906106125
 20
-197.1438511982
 10
755.2617727016
 20
-197.9936624729
 10
756.4365423468
 20
-198.6723946204
 10
757.3111526737
 20
-199.1778105028
 10
757.8828009168
 20
-199.5083512687
 10
758.1496747615
 20
-199.6628960532
 10
758.1108996609
 20
-199.6409870749
 10
757.7666073238
 20
-199.4426866797
 10
757.1179041049
 20
-199.0686320932
 10
756.1668551999
 20
-198.5200263049
 10
754.916526792
 20
-197.7986015674
 10
753.3709070267
 20
-196.9066954506
 10
751.5349613296
 20
-195.847148944
 10
749.4145507468
 20
-194.6233931514
 10
747.0164872628
 20
-193.2392743972
 10
744.3484416039
 20
-191.699293008
 10
741.4189564095
 20
-190.0083675803
 10
738.2374277927
 20
-188.1718973439
 10
734.814043437
 20
-186.195787257
 10
731.1597733767
 20
-184.086333187
 10
727.286314021
 20
-181.8503234319
 10
723.2060710312
 20
-179.4949071697
 10
718.9321335557
 20
-177.0276404227
 10
714.4781636765
 20
-174.4564222256
 10
709.858455843
 20
-171.7894802851
 10
705.0877974253
 20
-169.0353512988
 10
700.1814656679
 20
-166.2028792043
 10
695.1551826627
 20
-163.301140516
 10
690.0250524569
 20
-160.3393836799
 10
684.8074991505
 20
-157.3271515119
 10
679.5192418716
 20
-154.2740842423
 10
674.1772104824
 20
-151.1899438505
 10
668.7985350426
 20
-148.0846079904
 10
663.4004404423
 20
-144.9680334822
 10
658.0002068894
 20
-141.8501848364
 10
652.615146202
 20
-138.7410935723
 10
647.2624964411
 20
-135.6506757048
 10
641.9594113741
 20
-132.5888473397
 10
636.7228814492
 20
-129.5654182067
 10
631.5696653071
 20
-126.5900642867
 10
626.5162950492
 20
-123.6723065188
 10
621.5789287234
 20
-120.8215351309
 10
616.7734082764
 20
-118.0468484281
 10
612.1151225764
 20
-115.3571440452
 10
607.6189758026
 20
-112.7610276863
 10
603.2993821772
 20
-110.2668344222
 10
599.17018694
 20
-107.8825100574
 10
595.2445978596
 20
-105.6157540904
 10
591.5352063069
 20
-103.4737885342
 10
588.053892425
 20
-101.4634856734
 10
584.8117987868
 20
-99.5912798453
  0
LWPOLYLINE
  5
DD
330
1F
100
AcDbEntity
  8
0
  6
Continuous
 62
     1
370
    25
100
AcDbPolyline
 90
       16
 70
   128
 43
0.0
 10
641.5217637675
 20
-325.663099269
 10
646.1007129643
 20
-328.4511051584
 10
650.4161330639
 20
-331.3758470469
 10
654.4557925898
 20
-334.429035145
 10
658.208249002
 20
-337.6020078576
 10
661.6628549529
 20
-340.8857779739
 10
664.8098257881
 20
-344.2710351393
 10
667.6402316442
 20
-347.7481838717
 10
670.1460593515
 20
-351.3073671323
 10
672.3202018978
 20
-354.9384967393
 10
674.1565005747
 20
-358.6312776984
 10
675.649742344
 20
-362.3752431789
 10
676.79569935
 20
-366.159783406
 10
677.5911210168
 20
-369.9741715129
 10
678.0337524883
 20
-373.8075863505
 10
678.1334139799
 20
-376.6886062579
  0
LWPOLYLINE
  5
DE
330
1F
100
AcDbEntity
  8
0
  6
Continuous
 62
     1
370
    25
100
AcDbPolyline
 90
       46
 70
   128
 43
0.0
 10
428.1334182585
 20
-376.6886062579
 10
428.1444923429
 20
-375.7280422421
 10
428.4101966127
 20
-371.8891803337
 10
429.0294444528
 20
-368.0639224161
 10
430.0004762323
 20
-364.2631139693
 10
431.3205418695
 20
-360.4975213976
 10
432.9859034656
 20
-356.7778305098
 10
434.9918300369
 20
-353.1145765672
 10
437.3326475639
 20
-349.5181458047
 10
440.0017100155
 20
-345.998731331
 10
442.9914625691
 20
-342.5663148806
 10
446.2934192201
 20
-339.2306189122
 10
449.8982246853
 20
-336.0011012862
 10
453.7956662563
 20
-332.8869180087
 10
457.9746896052
 20
-329.8968958587
 10
462.4234501504
 20
-327.0395088176
 10
467.1293380817
 20
-324.3228575404
 10
472.0790139214
 20
-321.7546427437
 10
477.2584454033
 20
-319.3421439158
 10
482.6529535702
 20
-317.0921987883
 10
488.2472483357
 20
-315.0111888888
 10
494.025469314
 20
-313.1050098883
 10
499.9712332347
 20
-311.379062477
 10
506.0676984807
 20
-309.8382455209
 10
512.2975743072
 20
-308.4869203263
 10
518.643203819
 20
-307.3289235653
 10
525.0865955801
 20
-306.3675307797
 10
531.6095000051
 20
-305.6054731082
 10
538.193406725
 20
-305.0449083938
 10
544.8196657592
 20
-304.687424225
 10
551.4694901501
 20
-304.5340364151
 10
558.1240297197
 20
-304.5851768367
 10
564.764418485
 20
-304.8407025461
 10
571.3718484146
 20
-305.2998897003
 10
577.9275746979
 20
-305.9614365984
 10
584.4130158429
 20
-306.823466723
 10
590.8097931896
 20
-307.883539385
 10
597.0997756905
 20
-309.1386451612
 10
603.2651299603
 20
-310.5852287053
 10
609.288380862
 20
-312.2191872262
 10
615.1524536536
 20
-314.0358948197
 10
620.8407266717
 20
-316.0301963852
 10
626.3370721613
 20
-318.1964433621
 10
631.6259221303
 20
-320.5284891674
 10
636.6922726298
 20
-323.0197281634
 10
641.5217637675
 20
-325.663099269
  0
LWPOLYLINE
  5
DF
330
1F
100
AcDbEntity
  8
0
  6
Continuous
 62
     1
370
    25
100
AcDbPolyline
 90
       19
 70
   128
 43
0.0
 10
641.5217637675
 20
-325.663099269
 10
646.1374017959
 20
-328.3276337623
 10
650.56279356
 20
-330.8823082247
 10
654.7853967502
 20
-333.3198883601
 10
658.7932367226
 20
-335.6334433368
 10
662.5749549015
 20
-337.8164406517
 10
666.1198341335
 20
-339.862675593
 10
669.4178276637
 20
-341.7663488046
 10
672.4595788916
 20
-343.5220776854
 10
675.2364740551
 20
-345.1248659716
 10
677.7406369619
 20
-346.5701919421
 10
679.9649685022
 20
-347.8539338914
 10
681.903165088
 20
-348.9724720251
 10
683.5497370922
 20
-349.9226382672
 10
684.900011483
 20
-350.7017116926
 10
685.9501581656
 20
-351.3075249842
 10
686.6972110554
 20
-351.7383245089
 10
687.1390417367
 20
-351.9929071921
 10
687.2749389814
 20
-352.0708881585
  0
LWPOLYLINE
  5
E0
330
1F
100
AcDbEntity
  8
0
  6
Continuous
 62
     1
370
    25
100
AcDbPolyline
 90
       43
 70
   128
 43
0.0
 10
470.7685906929
 20
-227.0709014929
 10
470.7691227969
 20
-227.0712208459
 10
470.9406097624
 20
-227.1707362634
 10
471.4184720479
 20
-227.4471550351
 10
472.2013423504
 20
-227.8996530385
 10
473.2870097713
 20
-228.5269563708
 10
474.672390182
 20
-229.3272976294
 10
476.3535670537
 20
-230.2984105896
 10
478.3257629753
 20
-231.4375344893
 10
480.583391843
 20
-232.7414629839
 10
483.1200578726
 20
-234.2064656334
 10
485.9285684408
 20
-235.8283839147
 10
489.0009591105
 20
-237.602671528
 10
492.3285239233
 20
-239.5242613189
 10
495.9018312046
 20
-241.5877082488
 10
499.7107499059
 20
-243.7871741872
 10
503.7444825312
 20
-246.1164149866
 10
507.9915993822
 20
-248.5688276332
 10
512.4400596311
 20
-251.1374806683
 10
517.0772508335
 20
-253.8150609567
 10
521.8900310751
 20
-256.5940014436
 10
526.8647553137
 20
-259.4664233666
 10
531.9873306969
 20
-262.4241773161
 10
537.2432218303
 20
-265.4588706156
 10
542.6175508764
 20
-268.5619190324
 10
548.095060676
 20
-271.7245254863
 10
553.6602411889
 20
-274.9377165518
 10
559.2973084202
 20
-278.1923911256
 10
564.9902887145
 20
-281.4793021788
 10
570.7230345603
 20
-284.7891693004
 10
576.4793141527
 20
-288.1125783194
 10
582.2428008561
 20
-291.440127311
 10
587.9971522302
 20
-294.7623809667
 10
593.7260653469
 20
-298.0699086173
 10
599.4132952306
 20
-301.3533557143
 10
605.0427259798
 20
-304.6033936382
 10
610.5983892074
 20
-307.8108276799
 10
616.0645536022
 20
-310.9665574975
 10
621.4257143923
 20
-314.0616318644
 10
626.6666763218
 20
-317.0872965771
 10
631.7725826264
 20
-320.0349503453
 10
636.7289614614
 20
-322.8962567673
 10
641.5217637675
 20
-325.663099269
  0
ENDSEC
  0
SECTION
  2
OBJECTS
  0
DICTIONARY
  5
C
330
0
100
AcDbDictionary
281
     1
  3
ACAD_GROUP
350
D
  3
ACAD_LAYOUT
350
1A
  3
ACAD_MLINESTYLE
350
17
  3
ACAD_PLOTSETTINGS
350
19
  3
ACAD_PLOTSTYLENAME
350
E
  3
ACAD_SCALELIST
350
47
  0
DICTIONARY
  5
D
102
{ACAD_REACTORS
330
C
102
}
330
C
100
AcDbDictionary
281
     1
  0
DICTIONARY
  5
1A
102
{ACAD_REACTORS
330
C
102
}
330
C
100
AcDbDictionary
281
     1
  3
Layout1
350
1E
  3
Layout2
350
26
  3
Model
350
22
  0
DICTIONARY
  5
17
102
{ACAD_REACTORS
330
C
102
}
330
C
100
AcDbDictionary
281
     1
  3
Standard
350
18
  0
DICTIONARY
  5
19
102
{ACAD_REACTORS
330
C
102
}
330
C
100
AcDbDictionary
281
     1
  0
ACDBDICTIONARYWDFLT
  5
E
102
{ACAD_REACTORS
330
C
102
}
330
C
100
AcDbDictionary
281
     1
  3
Normal
350
F
100
AcDbDictionaryWithDefault
340
F
  0
DICTIONARY
  5
47
102
{ACAD_REACTORS
330
C
102
}
330
C
100
AcDbDictionary
281
     1
  3
A0
350
48
  3
A1
350
49
  3
A2
350
4A
  3
A3
350
4B
  3
A4
350
4C
  3
A5
350
4D
  3
A6
350
4E
  3
A7
350
4F
  3
A8
350
50
  3
A9
350
51
  3
B0
350
52
  3
B1
350
53
  3
B2
350
54
  3
B3
350
55
  3
B4
350
56
  3
B5
350
57
  3
B6
350
58
  3
B7
350
59
  3
B8
350
5A
  3
B9
350
5B
  3
C0
350
5C
  3
C1
350
5D
  3
C2
350
5E
  3
C3
350
5F
  3
C4
350
60
  3
C5
350
61
  3
C6
350
62
  3
C7
350
63
  3
C8
350
64
  3
C9
350
65
  3
D0
350
66
  3
D1
350
67
  3
D2
350
68
  0
LAYOUT
  5
1E
102
{ACAD_REACTORS
330
1A
102
}
330
1A
100
AcDbPlotSettings
  1

  2
none_device
  4

  6

 40
0.0
 41
0.0
 42
0.0
 43
0.0
 44
0.0
 45
0.0
 46
0.0
 47
0.0
 48
0.0
 49
0.0
140
0.0
141
0.0
142
1.0
143
1.0
 70
   688
 72
     1
 73
     0
 74
     5
  7

 75
    16
147
1.0
148
0.0
149
0.0
100
AcDbLayout
  1
Layout1
 70
     1
 71
     1
 10
0.0
 20
0.0
 11
420.0
 21
297.0
 12
0.0
 22
0.0
 32
0.0
 14
1.0000000000E+20
 24
1.0000000000E+20
 34
1.0000000000E+20
 15
-1.0000000000E+20
 25
-1.0000000000E+20
 35
-1.0000000000E+20
146
0.0
 13
0.0
 23
0.0
 33
0.0
 16
1.0
 26
0.0
 36
0.0
 17
0.0
 27
1.0
 37
0.0
 76
     0
330
1B
  0
LAYOUT
  5
26
102
{ACAD_REACTORS
330
1A
102
}
330
1A
100
AcDbPlotSettings
  1

  2
none_device
  4

  6

 40
0.0
 41
0.0
 42
0.0
 43
0.0
 44
0.0
 45
0.0
 46
0.0
 47
0.0
 48
0.0
 49
0.0
140
0.0
141
0.0
142
1.0
143
1.0
 70
   688
 72
     1
 73
     0
 74
     5
  7

 75
    16
147
1.0
148
0.0
149
0.0
100
AcDbLayout
  1
Layout2
 70
     1
 71
     2
 10
0.0
 20
0.0
 11
0.0
 21
0.0
 12
0.0
 22
0.0
 32
0.0
 14
0.0
 24
0.0
 34
0.0
 15
0.0
 25
0.0
 35
0.0
146
0.0
 13
0.0
 23
0.0
 33
0.0
 16
1.0
 26
0.0
 36
0.0
 17
0.0
 27
1.0
 37
0.0
 76
     0
330
23
  0
LAYOUT
  5
22
102
{ACAD_REACTORS
330
1A
102
}
330
1A
100
AcDbPlotSettings
  1

  2
none_device
  4
Letter_(8.50_x_11.00_Inches)
  6

 40
6.35
 41
6.35
 42
6.35000508
 43
6.35000508
 44
215.9
 45
279.4
 46
0.0
 47
0.0
 48
0.0
 49
0.0
140
0.0
141
0.0
142
1.0
143
1.0
 70
  1712
 72
     1
 73
     0
 74
     0
  7

 75
     0
147
1.0
148
0.0
149
0.0
100
AcDbLayout
  1
Model
 70
     1
 71
     0
 10
0.0
 20
0.0
 11
279.4
 21
215.9
 12
0.0
 22
0.0
 32
0.0
 14
0.0
 24
0.0
 34
0.0
 15
279.4
 25
215.9
 35
0.0
146
0.0
 13
0.0
 23
0.0
 33
0.0
 16
1.0
 26
0.0
 36
0.0
 17
0.0
 27
1.0
 37
0.0
 76
     0
330
1F
331
29
  0
MLINESTYLE
  5
18
102
{ACAD_REACTORS
330
17
102
}
330
17
100
AcDbMlineStyle
  2
Standard
 70
     0
  3

 62
   256
 51
90.0
 52
90.0
 71
     2
 49
0.5
 62
   256
  6
BYLAYER
 49
-0.5
 62
   256
  6
BYLAYER
  0
ACDBPLACEHOLDER
  5
F
102
{ACAD_REACTORS
330
E
102
}
330
E
  0
SCALE
  5
48
102
{ACAD_REACTORS
330
47
102
}
330
47
100
AcDbScale
 70
     0
300
1:1
140
1.0
141
1.0
290
     1
  0
SCALE
  5
49
102
{ACAD_REACTORS
330
47
102
}
330
47
100
AcDbScale
 70
     0
300
1:2
140
1.0
141
2.0
290
     0
  0
SCALE
  5
4A
102
{ACAD_REACTORS
330
47
102
}
330
47
100
AcDbScale
 70
     0
300
1:4
140
1.0
141
4.0
290
     0
  0
SCALE
  5
4B
102
{ACAD_REACTORS
330
47
102
}
330
47
100
AcDbScale
 70
     0
300
1:5
140
1.0
141
5.0
290
     0
  0
SCALE
  5
4C
102
{ACAD_REACTORS
330
47
102
}
330
47
100
AcDbScale
 70
     0
300
1:8
140
1.0
141
8.0
290
     0
  0
SCALE
  5
4D
102
{ACAD_REACTORS
330
47
102
}
330
47
100
AcDbScale
 70
     0
300
1:10
140
1.0
141
10.0
290
     0
  0
SCALE
  5
4E
102
{ACAD_REACTORS
330
47
102
}
330
47
100
AcDbScale
 70
     0
300
1:16
140
1.0
141
16.0
290
     0
  0
SCALE
  5
4F
102
{ACAD_REACTORS
330
47
102
}
330
47
100
AcDbScale
 70
     0
300
1:20
140
1.0
141
20.0
290
     0
  0
SCALE
  5
50
102
{ACAD_REACTORS
330
47
102
}
330
47
100
AcDbScale
 70
     0
300
1:30
140
1.0
141
30.0
290
     0
  0
SCALE
  5
51
102
{ACAD_REACTORS
330
47
102
}
330
47
100
AcDbScale
 70
     0
300
1:40
140
1.0
141
40.0
290
     0
  0
SCALE
  5
52
102
{ACAD_REACTORS
330
47
102
}
330
47
100
AcDbScale
 70
     0
300
1:50
140
1.0
141
50.0
290
     0
  0
SCALE
  5
53
102
{ACAD_REACTORS
330
47
102
}
330
47
100
AcDbScale
 70
     0
300
1:100
140
1.0
141
100.0
290
     0
  0
SCALE
  5
54
102
{ACAD_REACTORS
330
47
102
}
330
47
100
AcDbScale
 70
     0
300
2:1
140
2.0
141
1.0
290
     0
  0
SCALE
  5
55
102
{ACAD_REACTORS
330
47
102
}
330
47
100
AcDbScale
 70
     0
300
4:1
140
4.0
141
1.0
290
     0
  0
SCALE
  5
56
102
{ACAD_REACTORS
330
47
102
}
330
47
100
AcDbScale
 70
     0
300
8:1
140
8.0
141
1.0
290
     0
  0
SCALE
  5
57
102
{ACAD_REACTORS
330
47
102
}
330
47
100
AcDbScale
 70
     0
300
10:1
140
10.0
141
1.0
290
     0
  0
SCALE
  5
58
102
{ACAD_REACTORS
330
47
102
}
330
47
100
AcDbScale
 70
     0
300
100:1
140
100.0
141
1.0
290
     0
  0
SCALE
  5
59
102
{ACAD_REACTORS
330
47
102
}
330
47
100
AcDbScale
 70
     0
300
1/128" = 1'-0"
140
0.0078125
141
12.0
290
     0
  0
SCALE
  5
5A
102
{ACAD_REACTORS
330
47
102
}
330
47
100
AcDbScale
 70
     0
300
1/64" = 1'-0"
140
0.015625
141
12.0
290
     0
  0
SCALE
  5
5B
102
{ACAD_REACTORS
330
47
102
}
330
47
100
AcDbScale
 70
     0
300
1/32" = 1'-0"
140
0.03125
141
12.0
290
     0
  0
SCALE
  5
5C
102
{ACAD_REACTORS
330
47
102
}
330
47
100
AcDbScale
 70
     0
300
1/16" = 1'-0"
140
0.0625
141
12.0
290
     0
  0
SCALE
  5
5D
102
{ACAD_REACTORS
330
47
102
}
330
47
100
AcDbScale
 70
     0
300
3/32" = 1'-0"
140
0.09375
141
12.0
290
     0
  0
SCALE
  5
5E
102
{ACAD_REACTORS
330
47
102
}
330
47
100
AcDbScale
 70
     0
300
1/8" = 1'-0"
140
0.125
141
12.0
290
     0
  0
SCALE
  5
5F
102
{ACAD_REACTORS
330
47
102
}
330
47
100
AcDbScale
 70
     0
300
3/16" = 1'-0"
140
0.1875
141
12.0
290
     0
  0
SCALE
  5
60
102
{ACAD_REACTORS
330
47
102
}
330
47
100
AcDbScale
 70
     0
300
1/4" = 1'-0"
140
0.25
141
12.0
290
     0
  0
SCALE
  5
61
102
{ACAD_REACTORS
330
47
102
}
330
47
100
AcDbScale
 70
     0
300
3/8" = 1'-0"
140
0.375
141
12.0
290
     0
  0
SCALE
  5
62
102
{ACAD_REACTORS
330
47
102
}
330
47
100
AcDbScale
 70
     0
300
1/2" = 1'-0"
140
0.5
141
12.0
290
     0
  0
SCALE
  5
63
102
{ACAD_REACTORS
330
47
102
}
330
47
100
AcDbScale
 70
     0
300
3/4" = 1'-0"
140
0.75
141
12.0
290
     0
  0
SCALE
  5
64
102
{ACAD_REACTORS
330
47
102
}
330
47
100
AcDbScale
 70
     0
300
1" = 1'-0"
140
1.0
141
12.0
290
     0
  0
SCALE
  5
65
102
{ACAD_REACTORS
330
47
102
}
330
47
100
AcDbScale
 70
     0
300
1-1/2" = 1'-0"
140
1.5
141
12.0
290
     0
  0
SCALE
  5
66
102
{ACAD_REACTORS
330
47
102
}
330
47
100
AcDbScale
 70
     0
300
3" = 1'-0"
140
3.0
141
12.0
290
     0
  0
SCALE
  5
67
102
{ACAD_REACTORS
330
47
102
}
330
47
100
AcDbScale
 70
     0
300
6" = 1'-0"
140
6.0
141
12.0
290
     0
  0
SCALE
  5
68
102
{ACAD_REACTORS
330
47
102
}
330
47
100
AcDbScale
 70
     0
300
1'-0" = 1'-0"
140
12.0
141
12.0
290
     0
  0
ENDSEC
  0
EOF
